ISO-10303-21;
HEADER;
FILE_DESCRIPTION (( 'STEP AP214' ),
    '1' );
FILE_NAME ('4433-E0W.STEP',
    '2009-12-21T17:01:15',
    ( ' ' ),
    ( ' ' ),
    'SwSTEP 2.0',
    'SolidWorks 2009',
    '' );
FILE_SCHEMA (( 'AUTOMOTIVE_DESIGN' ));
ENDSEC;

DATA;
#1 = MECHANICAL_DESIGN_GEOMETRIC_PRESENTATION_REPRESENTATION (  '', ( #12 ), #9 ) ;
#2 = CARTESIAN_POINT ( 'NONE',  ( 0.0000000000000000000, 12.69999999999999800, -0.3655129617168929000 ) ) ;
#3 = SURFACE_STYLE_USAGE ( .BOTH. , #14 ) ;
#4 = DIRECTION ( 'NONE',  ( 0.0000000000000000000, 1.000000000000000000, 0.0000000000000000000 ) ) ;
#5 = DIRECTION ( 'NONE',  ( -1.000000000000000000, 0.0000000000000000000, 0.0000000000000000000 ) ) ;
#6 = AXIS2_PLACEMENT_3D ( 'NONE', #7, #5, #4 ) ;
#7 = CARTESIAN_POINT ( 'NONE',  ( 0.0000000000000000000, 0.0000000000000000000, -28.53499999999999700 ) ) ;
#8 = SPHERICAL_SURFACE ( 'NONE', #6, 30.89999999999999900 ) ;
#9 =( GEOMETRIC_REPRESENTATION_CONTEXT ( 3 ) GLOBAL_UNCERTAINTY_ASSIGNED_CONTEXT ( ( #10 ) ) GLOBAL_UNIT_ASSIGNED_CONTEXT ( ( #36, #38, #40 ) ) REPRESENTATION_CONTEXT ( 'NONE', 'WORKASPACE' ) );
#10 = UNCERTAINTY_MEASURE_WITH_UNIT (LENGTH_MEASURE( 1.000000000000000100E-005 ), #36, 'distance_accuracy_value', 'NONE');
#11 = FILL_AREA_STYLE ('',( #16 ) ) ;
#12 = STYLED_ITEM ( 'NONE', ( #13 ), #156 ) ;
#13 = PRESENTATION_STYLE_ASSIGNMENT (( #3 ) ) ;
#14 = SURFACE_SIDE_STYLE ('',( #37 ) ) ;
#15 = COLOUR_RGB ( '',0.9568627450980391500, 0.9490196078431372100, 0.9607843137254902200 ) ;
#16 = FILL_AREA_STYLE_COLOUR ( '', #15 ) ;
#17 = DIRECTION ( 'NONE',  ( 1.000000000000000000, 0.0000000000000000000, 0.0000000000000000000 ) ) ;
#18 = DIRECTION ( 'NONE',  ( -0.0000000000000000000, -0.0000000000000000000, 1.000000000000000000 ) ) ;
#19 = CARTESIAN_POINT ( 'NONE',  ( 0.0000000000000000000, 0.0000000000000000000, -2.365000000000000700 ) ) ;
#20 = AXIS2_PLACEMENT_3D ( 'NONE', #19, #18, #17 ) ;
#21 = CIRCLE ( 'NONE', #20, 12.69999999999999900 ) ;
#22 = DIRECTION ( 'NONE',  ( 1.000000000000000000, 0.0000000000000000000, 0.0000000000000000000 ) ) ;
#23 = DIRECTION ( 'NONE',  ( -0.0000000000000000000, -0.0000000000000000000, 1.000000000000000000 ) ) ;
#24 = CARTESIAN_POINT ( 'NONE',  ( 0.0000000000000000000, 0.0000000000000000000, -0.3655129617168937400 ) ) ;
#25 = AXIS2_PLACEMENT_3D ( 'NONE', #24, #23, #22 ) ;
#26 = CIRCLE ( 'NONE', #25, 12.69999999999999900 ) ;
#27 = DIRECTION ( 'NONE',  ( 1.000000000000000000, 0.0000000000000000000, 0.0000000000000000000 ) ) ;
#28 = DIRECTION ( 'NONE',  ( -0.0000000000000000000, -0.0000000000000000000, 1.000000000000000000 ) ) ;
#29 = CARTESIAN_POINT ( 'NONE',  ( 0.0000000000000000000, 0.0000000000000000000, -2.365000000000000700 ) ) ;
#30 = AXIS2_PLACEMENT_3D ( 'NONE', #29, #28, #27 ) ;
#31 = CIRCLE ( 'NONE', #30, 12.69999999999999900 ) ;
#32 = DIRECTION ( 'NONE',  ( -0.0000000000000000000, -0.0000000000000000000, 1.000000000000000000 ) ) ;
#33 = VECTOR ( 'NONE', #32, 1000.000000000000000 ) ;
#34 = CARTESIAN_POINT ( 'NONE',  ( 12.69999999999999900, 0.0000000000000000000, 4.308132045400366600 ) ) ;
#35 = LINE ( 'NONE', #34, #33 ) ;
#36 =( LENGTH_UNIT ( ) NAMED_UNIT ( * ) SI_UNIT ( .MILLI., .METRE. ) );
#37 = SURFACE_STYLE_FILL_AREA ( #11 ) ;
#38 =( NAMED_UNIT ( * ) PLANE_ANGLE_UNIT ( ) SI_UNIT ( $, .RADIAN. ) );
#39 = FACE_OUTER_BOUND ( 'NONE', #159, .T. ) ;
#40 =( NAMED_UNIT ( * ) SI_UNIT ( $, .STERADIAN. ) SOLID_ANGLE_UNIT ( ) );
#41 = PRESENTATION_LAYER_ASSIGNMENT (  '', '', ( #12 ) ) ;
#42 = CARTESIAN_POINT ( 'NONE',  ( -12.69999999999999900, 1.555250069354419100E-015, -2.365000000000000700 ) ) ;
#43 = CARTESIAN_POINT ( 'NONE',  ( 12.69999999999999900, 0.0000000000000000000, -0.3655129617168937400 ) ) ;
#44 = DIRECTION ( 'NONE',  ( -0.0000000000000000000, -0.0000000000000000000, 1.000000000000000000 ) ) ;
#45 = VECTOR ( 'NONE', #44, 1000.000000000000000 ) ;
#46 = CARTESIAN_POINT ( 'NONE',  ( -12.69999999999999900, 1.555250069354419100E-015, 4.308132045400366600 ) ) ;
#47 = DIRECTION ( 'NONE',  ( 0.0000000000000000000, 0.0000000000000000000, -1.000000000000000000 ) ) ;
#48 = DIRECTION ( 'NONE',  ( 1.000000000000000000, 0.0000000000000000000, 0.0000000000000000000 ) ) ;
#49 = CARTESIAN_POINT ( 'NONE',  ( 0.0000000000000000000, 0.0000000000000000000, -28.53499999999999700 ) ) ;
#50 = AXIS2_PLACEMENT_3D ( 'NONE', #49, #48, #47 ) ;
#51 = CIRCLE ( 'NONE', #50, 30.89999999999999900 ) ;
#52 = LINE ( 'NONE', #46, #45 ) ;
#53 = FILL_AREA_STYLE_COLOUR ( '', #103 ) ;
#54 = FACE_OUTER_BOUND ( 'NONE', #209, .T. ) ;
#55 = DIRECTION ( 'NONE',  ( 1.000000000000000000, 0.0000000000000000000, 0.0000000000000000000 ) ) ;
#56 = DIRECTION ( 'NONE',  ( -0.0000000000000000000, -0.0000000000000000000, 1.000000000000000000 ) ) ;
#57 = CARTESIAN_POINT ( 'NONE',  ( 0.0000000000000000000, 0.0000000000000000000, -0.3655129617168937400 ) ) ;
#58 = AXIS2_PLACEMENT_3D ( 'NONE', #57, #56, #55 ) ;
#59 = FILL_AREA_STYLE ('',( #53 ) ) ;
#60 = DIRECTION ( 'NONE',  ( 1.000000000000000000, 0.0000000000000000000, 0.0000000000000000000 ) ) ;
#61 = DIRECTION ( 'NONE',  ( -0.0000000000000000000, -0.0000000000000000000, 1.000000000000000000 ) ) ;
#62 = CARTESIAN_POINT ( 'NONE',  ( 0.0000000000000000000, 0.0000000000000000000, 4.308132045400366600 ) ) ;
#63 = AXIS2_PLACEMENT_3D ( 'NONE', #62, #61, #60 ) ;
#64 = CIRCLE ( 'NONE', #58, 12.69999999999999900 ) ;
#65 = CYLINDRICAL_SURFACE ( 'NONE', #63, 12.69999999999999900 ) ;
#66 =( GEOMETRIC_REPRESENTATION_CONTEXT ( 3 ) GLOBAL_UNCERTAINTY_ASSIGNED_CONTEXT ( ( #67 ) ) GLOBAL_UNIT_ASSIGNED_CONTEXT ( ( #70, #69, #68 ) ) REPRESENTATION_CONTEXT ( 'NONE', 'WORKASPACE' ) );
#67 = UNCERTAINTY_MEASURE_WITH_UNIT (LENGTH_MEASURE( 1.000000000000000100E-005 ), #70, 'distance_accuracy_value', 'NONE');
#68 =( NAMED_UNIT ( * ) SI_UNIT ( $, .STERADIAN. ) SOLID_ANGLE_UNIT ( ) );
#69 =( NAMED_UNIT ( * ) PLANE_ANGLE_UNIT ( ) SI_UNIT ( $, .RADIAN. ) );
#70 =( LENGTH_UNIT ( ) NAMED_UNIT ( * ) SI_UNIT ( .MILLI., .METRE. ) );
#71 = MECHANICAL_DESIGN_GEOMETRIC_PRESENTATION_REPRESENTATION (  '', ( #73 ), #66 ) ;
#72 = PRESENTATION_LAYER_ASSIGNMENT (  '', '', ( #73 ) ) ;
#73 = STYLED_ITEM ( 'NONE', ( #74 ), #206 ) ;
#74 = PRESENTATION_STYLE_ASSIGNMENT (( #75 ) ) ;
#75 = SURFACE_STYLE_USAGE ( .BOTH. , #76 ) ;
#76 = SURFACE_SIDE_STYLE ('',( #77 ) ) ;
#77 = SURFACE_STYLE_FILL_AREA ( #78 ) ;
#78 = FILL_AREA_STYLE ('',( #79 ) ) ;
#79 = FILL_AREA_STYLE_COLOUR ( '', #80 ) ;
#80 = COLOUR_RGB ( '',0.9568627450980391500, 0.9490196078431372100, 0.9607843137254902200 ) ;
#81 = FACE_OUTER_BOUND ( 'NONE', #212, .T. ) ;
#82 =( NAMED_UNIT ( * ) SI_UNIT ( $, .STERADIAN. ) SOLID_ANGLE_UNIT ( ) );
#83 =( NAMED_UNIT ( * ) PLANE_ANGLE_UNIT ( ) SI_UNIT ( $, .RADIAN. ) );
#84 =( LENGTH_UNIT ( ) NAMED_UNIT ( * ) SI_UNIT ( .MILLI., .METRE. ) );
#85 = DIRECTION ( 'NONE',  ( 1.000000000000000000, 0.0000000000000000000, 0.0000000000000000000 ) ) ;
#86 = DIRECTION ( 'NONE',  ( 0.0000000000000000000, -0.0000000000000000000, 1.000000000000000000 ) ) ;
#87 = CARTESIAN_POINT ( 'NONE',  ( 0.0000000000000000000, 8.688869039950471900E-016, -2.365000000000000200 ) ) ;
#88 = AXIS2_PLACEMENT_3D ( 'NONE', #87, #86, #85 ) ;
#89 = CARTESIAN_POINT ( 'NONE',  ( 0.0000000000000000000, 0.0000000000000000000, 0.0000000000000000000 ) ) ;
#90 = PLANE ( 'NONE',  #88 ) ;
#91 =( GEOMETRIC_REPRESENTATION_CONTEXT ( 3 ) GLOBAL_UNCERTAINTY_ASSIGNED_CONTEXT ( ( #92 ) ) GLOBAL_UNIT_ASSIGNED_CONTEXT ( ( #95, #94, #93 ) ) REPRESENTATION_CONTEXT ( 'NONE', 'WORKASPACE' ) );
#92 = UNCERTAINTY_MEASURE_WITH_UNIT (LENGTH_MEASURE( 1.000000000000000100E-005 ), #95, 'distance_accuracy_value', 'NONE');
#93 =( NAMED_UNIT ( * ) SI_UNIT ( $, .STERADIAN. ) SOLID_ANGLE_UNIT ( ) );
#94 =( NAMED_UNIT ( * ) PLANE_ANGLE_UNIT ( ) SI_UNIT ( $, .RADIAN. ) );
#95 =( LENGTH_UNIT ( ) NAMED_UNIT ( * ) SI_UNIT ( .MILLI., .METRE. ) );
#96 = MECHANICAL_DESIGN_GEOMETRIC_PRESENTATION_REPRESENTATION (  '', ( #98 ), #91 ) ;
#97 = PRESENTATION_LAYER_ASSIGNMENT (  '', '', ( #98 ) ) ;
#98 = STYLED_ITEM ( 'NONE', ( #99 ), #215 ) ;
#99 = PRESENTATION_STYLE_ASSIGNMENT (( #100 ) ) ;
#100 = SURFACE_STYLE_USAGE ( .BOTH. , #101 ) ;
#101 = SURFACE_SIDE_STYLE ('',( #102 ) ) ;
#102 = SURFACE_STYLE_FILL_AREA ( #59 ) ;
#103 = COLOUR_RGB ( '',0.9568627450980391500, 0.9490196078431372100, 0.9607843137254902200 ) ;
#104 = DIRECTION ( 'NONE',  ( 1.000000000000000000, 0.0000000000000000000, 0.0000000000000000000 ) ) ;
#105 = DIRECTION ( 'NONE',  ( 0.0000000000000000000, 0.0000000000000000000, 1.000000000000000000 ) ) ;
#106 =( GEOMETRIC_REPRESENTATION_CONTEXT ( 3 ) GLOBAL_UNCERTAINTY_ASSIGNED_CONTEXT ( ( #107 ) ) GLOBAL_UNIT_ASSIGNED_CONTEXT ( ( #110, #109, #108 ) ) REPRESENTATION_CONTEXT ( 'NONE', 'WORKASPACE' ) );
#107 = UNCERTAINTY_MEASURE_WITH_UNIT (LENGTH_MEASURE( 1.000000000000000100E-005 ), #110, 'distance_accuracy_value', 'NONE');
#108 =( NAMED_UNIT ( * ) SI_UNIT ( $, .STERADIAN. ) SOLID_ANGLE_UNIT ( ) );
#109 =( NAMED_UNIT ( * ) PLANE_ANGLE_UNIT ( ) SI_UNIT ( $, .RADIAN. ) );
#110 =( LENGTH_UNIT ( ) NAMED_UNIT ( * ) SI_UNIT ( .MILLI., .METRE. ) );
#111 = MECHANICAL_DESIGN_GEOMETRIC_PRESENTATION_REPRESENTATION (  '', ( #113 ), #106 ) ;
#112 = PRESENTATION_LAYER_ASSIGNMENT (  '', '', ( #113 ) ) ;
#113 = STYLED_ITEM ( 'NONE', ( #114 ), #122 ) ;
#114 = PRESENTATION_STYLE_ASSIGNMENT (( #115 ) ) ;
#115 = SURFACE_STYLE_USAGE ( .BOTH. , #116 ) ;
#116 = SURFACE_SIDE_STYLE ('',( #117 ) ) ;
#117 = SURFACE_STYLE_FILL_AREA ( #118 ) ;
#118 = FILL_AREA_STYLE ('',( #119 ) ) ;
#119 = FILL_AREA_STYLE_COLOUR ( '', #120 ) ;
#120 = COLOUR_RGB ( '',0.7960784313725489700, 0.8235294117647058400, 0.9372549019607843100 ) ;
#121 = APPLICATION_CONTEXT ( 'automotive_design' ) ;
#122 = ADVANCED_BREP_SHAPE_REPRESENTATION ( '4433-E0W', ( #148, #135 ), #123 ) ;
#123 =( GEOMETRIC_REPRESENTATION_CONTEXT ( 3 ) GLOBAL_UNCERTAINTY_ASSIGNED_CONTEXT ( ( #124 ) ) GLOBAL_UNIT_ASSIGNED_CONTEXT ( ( #84, #83, #82 ) ) REPRESENTATION_CONTEXT ( 'NONE', 'WORKASPACE' ) );
#124 = UNCERTAINTY_MEASURE_WITH_UNIT (LENGTH_MEASURE( 1.000000000000000100E-005 ), #84, 'distance_accuracy_value', 'NONE');
#125 = PRODUCT_DEFINITION_SHAPE ( 'NONE', 'NONE',  #128 ) ;
#126 = PRODUCT_RELATED_PRODUCT_CATEGORY ( 'part', '', ( #132 ) ) ;
#127 = PRODUCT_DEFINITION_FORMATION_WITH_SPECIFIED_SOURCE ( 'ANY', '', #132, .NOT_KNOWN. ) ;
#128 = PRODUCT_DEFINITION ( 'UNKNOWN', '', #127, #129 ) ;
#129 = PRODUCT_DEFINITION_CONTEXT ( 'detailed design', #131, 'design' ) ;
#130 = APPLICATION_PROTOCOL_DEFINITION ( 'draft international standard', 'automotive_design', 1998, #131 ) ;
#131 = APPLICATION_CONTEXT ( 'automotive_design' ) ;
#132 = PRODUCT ( '4433-E0W', '4433-E0W', '', ( #133 ) ) ;
#133 = PRODUCT_CONTEXT ( 'NONE', #121, 'mechanical' ) ;
#134 = APPLICATION_PROTOCOL_DEFINITION ( 'draft international standard', 'automotive_design', 1998, #121 ) ;
#135 = AXIS2_PLACEMENT_3D ( 'NONE', #89, #105, #104 ) ;
#136 = SHAPE_DEFINITION_REPRESENTATION ( #125, #122 ) ;
#137 = ADVANCED_FACE ( 'NONE', ( #218 ), #227, .T. ) ;
#138 = VERTEX_POINT ( 'NONE', #241 ) ;
#139 = VERTEX_POINT ( 'NONE', #240 ) ;
#140 = EDGE_LOOP ( 'NONE', ( #154, #151, #142, #163, #153 ) ) ;
#141 = VERTEX_POINT ( 'NONE', #239 ) ;
#142 = ORIENTED_EDGE ( 'NONE', *, *, #143, .F. ) ;
#143 = EDGE_CURVE ( 'NONE', #152, #139, #162, .T. ) ;
#144 = ORIENTED_EDGE ( 'NONE', *, *, #145, .T. ) ;
#145 = EDGE_CURVE ( 'NONE', #141, #138, #260, .T. ) ;
#146 = VERTEX_POINT ( 'NONE', #261 ) ;
#147 = EDGE_CURVE ( 'NONE', #139, #141, #243, .T. ) ;
#148 = MANIFOLD_SOLID_BREP ( 'NONE', #207 ) ;
#149 = ADVANCED_FACE ( 'NONE', ( #187 ), #238, .T. ) ;
#150 = DIRECTION ( 'NONE',  ( 1.000000000000000000, 0.0000000000000000000, 0.0000000000000000000 ) ) ;
#151 = ORIENTED_EDGE ( 'NONE', *, *, #167, .T. ) ;
#152 = VERTEX_POINT ( 'NONE', #2 ) ;
#153 = ORIENTED_EDGE ( 'NONE', *, *, #170, .F. ) ;
#154 = ORIENTED_EDGE ( 'NONE', *, *, #173, .T. ) ;
#155 = DIRECTION ( 'NONE',  ( -0.0000000000000000000, -0.0000000000000000000, 1.000000000000000000 ) ) ;
#156 = ADVANCED_FACE ( 'NONE', ( #39 ), #8, .T. ) ;
#157 = DIRECTION ( 'NONE',  ( -0.0000000000000000000, -0.0000000000000000000, 1.000000000000000000 ) ) ;
#158 = AXIS2_PLACEMENT_3D ( 'NONE', #161, #157, #150 ) ;
#159 = EDGE_LOOP ( 'NONE', ( #198, #199, #144, #160 ) ) ;
#160 = ORIENTED_EDGE ( 'NONE', *, *, #166, .F. ) ;
#161 = CARTESIAN_POINT ( 'NONE',  ( 0.0000000000000000000, 0.0000000000000000000, -0.3655129617168937400 ) ) ;
#162 = CIRCLE ( 'NONE', #158, 12.69999999999999900 ) ;
#163 = ORIENTED_EDGE ( 'NONE', *, *, #174, .F. ) ;
#164 = DIRECTION ( 'NONE',  ( 1.000000000000000000, 0.0000000000000000000, 0.0000000000000000000 ) ) ;
#165 = EDGE_LOOP ( 'NONE', ( #204, #216, #197, #208 ) ) ;
#166 = EDGE_CURVE ( 'NONE', #152, #138, #51, .T. ) ;
#167 = EDGE_CURVE ( 'NONE', #169, #139, #52, .T. ) ;
#168 = VERTEX_POINT ( 'NONE', #43 ) ;
#169 = VERTEX_POINT ( 'NONE', #42 ) ;
#170 = EDGE_CURVE ( 'NONE', #146, #168, #35, .T. ) ;
#171 = MECHANICAL_DESIGN_GEOMETRIC_PRESENTATION_REPRESENTATION (  '', ( #247 ), #184 ) ;
#172 =( LENGTH_UNIT ( ) NAMED_UNIT ( * ) SI_UNIT ( .MILLI., .METRE. ) );
#173 = EDGE_CURVE ( 'NONE', #146, #169, #31, .T. ) ;
#174 = EDGE_CURVE ( 'NONE', #168, #152, #26, .T. ) ;
#175 =( NAMED_UNIT ( * ) PLANE_ANGLE_UNIT ( ) SI_UNIT ( $, .RADIAN. ) );
#176 = UNCERTAINTY_MEASURE_WITH_UNIT (LENGTH_MEASURE( 1.000000000000000100E-005 ), #178, 'distance_accuracy_value', 'NONE');
#177 = UNCERTAINTY_MEASURE_WITH_UNIT (LENGTH_MEASURE( 1.000000000000000100E-005 ), #172, 'distance_accuracy_value', 'NONE');
#178 =( LENGTH_UNIT ( ) NAMED_UNIT ( * ) SI_UNIT ( .MILLI., .METRE. ) );
#179 = SURFACE_SIDE_STYLE ('',( #183 ) ) ;
#180 =( NAMED_UNIT ( * ) PLANE_ANGLE_UNIT ( ) SI_UNIT ( $, .RADIAN. ) );
#181 = PRESENTATION_STYLE_ASSIGNMENT (( #190 ) ) ;
#182 = FILL_AREA_STYLE ('',( #192 ) ) ;
#183 = SURFACE_STYLE_FILL_AREA ( #182 ) ;
#184 =( GEOMETRIC_REPRESENTATION_CONTEXT ( 3 ) GLOBAL_UNCERTAINTY_ASSIGNED_CONTEXT ( ( #177 ) ) GLOBAL_UNIT_ASSIGNED_CONTEXT ( ( #172, #175, #188 ) ) REPRESENTATION_CONTEXT ( 'NONE', 'WORKASPACE' ) );
#185 = PRESENTATION_LAYER_ASSIGNMENT (  '', '', ( #195 ) ) ;
#186 = MECHANICAL_DESIGN_GEOMETRIC_PRESENTATION_REPRESENTATION (  '', ( #195 ), #191 ) ;
#187 = FACE_OUTER_BOUND ( 'NONE', #165, .T. ) ;
#188 =( NAMED_UNIT ( * ) SI_UNIT ( $, .STERADIAN. ) SOLID_ANGLE_UNIT ( ) );
#189 = COLOUR_RGB ( '',0.9568627450980391500, 0.9490196078431372100, 0.9607843137254902200 ) ;
#190 = SURFACE_STYLE_USAGE ( .BOTH. , #179 ) ;
#191 =( GEOMETRIC_REPRESENTATION_CONTEXT ( 3 ) GLOBAL_UNCERTAINTY_ASSIGNED_CONTEXT ( ( #176 ) ) GLOBAL_UNIT_ASSIGNED_CONTEXT ( ( #178, #180, #196 ) ) REPRESENTATION_CONTEXT ( 'NONE', 'WORKASPACE' ) );
#192 = FILL_AREA_STYLE_COLOUR ( '', #189 ) ;
#193 = DIRECTION ( 'NONE',  ( 0.0000000000000000000, 1.000000000000000000, 0.0000000000000000000 ) ) ;
#194 = DIRECTION ( 'NONE',  ( -1.000000000000000000, 0.0000000000000000000, 0.0000000000000000000 ) ) ;
#195 = STYLED_ITEM ( 'NONE', ( #181 ), #149 ) ;
#196 =( NAMED_UNIT ( * ) SI_UNIT ( $, .STERADIAN. ) SOLID_ANGLE_UNIT ( ) );
#197 = ORIENTED_EDGE ( 'NONE', *, *, #174, .T. ) ;
#198 = ORIENTED_EDGE ( 'NONE', *, *, #143, .T. ) ;
#199 = ORIENTED_EDGE ( 'NONE', *, *, #147, .T. ) ;
#200 = ORIENTED_EDGE ( 'NONE', *, *, #170, .T. ) ;
#201 = ORIENTED_EDGE ( 'NONE', *, *, #210, .F. ) ;
#202 = ORIENTED_EDGE ( 'NONE', *, *, #167, .F. ) ;
#203 = EDGE_CURVE ( 'NONE', #169, #146, #21, .T. ) ;
#204 = ORIENTED_EDGE ( 'NONE', *, *, #145, .F. ) ;
#205 = ORIENTED_EDGE ( 'NONE', *, *, #203, .T. ) ;
#206 = ADVANCED_FACE ( 'NONE', ( #81 ), #65, .T. ) ;
#207 = CLOSED_SHELL ( 'NONE', ( #137, #156, #149, #206, #215 ) ) ;
#208 = ORIENTED_EDGE ( 'NONE', *, *, #166, .T. ) ;
#209 = EDGE_LOOP ( 'NONE', ( #211, #213 ) ) ;
#210 = EDGE_CURVE ( 'NONE', #141, #168, #64, .T. ) ;
#211 = ORIENTED_EDGE ( 'NONE', *, *, #173, .F. ) ;
#212 = EDGE_LOOP ( 'NONE', ( #202, #205, #200, #201, #214 ) ) ;
#213 = ORIENTED_EDGE ( 'NONE', *, *, #203, .F. ) ;
#214 = ORIENTED_EDGE ( 'NONE', *, *, #147, .F. ) ;
#215 = ADVANCED_FACE ( 'NONE', ( #54 ), #90, .F. ) ;
#216 = ORIENTED_EDGE ( 'NONE', *, *, #210, .T. ) ;
#217 = COLOUR_RGB ( '',0.9568627450980391500, 0.9490196078431372100, 0.9607843137254902200 ) ;
#218 = FACE_OUTER_BOUND ( 'NONE', #140, .T. ) ;
#219 = FILL_AREA_STYLE_COLOUR ( '', #217 ) ;
#220 = FILL_AREA_STYLE ('',( #219 ) ) ;
#221 =( NAMED_UNIT ( * ) SI_UNIT ( $, .STERADIAN. ) SOLID_ANGLE_UNIT ( ) );
#222 =( NAMED_UNIT ( * ) PLANE_ANGLE_UNIT ( ) SI_UNIT ( $, .RADIAN. ) );
#223 =( LENGTH_UNIT ( ) NAMED_UNIT ( * ) SI_UNIT ( .MILLI., .METRE. ) );
#224 = MECHANICAL_DESIGN_GEOMETRIC_PRESENTATION_REPRESENTATION (  '', ( #231 ), #228 ) ;
#225 = CARTESIAN_POINT ( 'NONE',  ( 0.0000000000000000000, 0.0000000000000000000, 4.308132045400366600 ) ) ;
#226 = AXIS2_PLACEMENT_3D ( 'NONE', #225, #155, #164 ) ;
#227 = CYLINDRICAL_SURFACE ( 'NONE', #226, 12.69999999999999900 ) ;
#228 =( GEOMETRIC_REPRESENTATION_CONTEXT ( 3 ) GLOBAL_UNCERTAINTY_ASSIGNED_CONTEXT ( ( #229 ) ) GLOBAL_UNIT_ASSIGNED_CONTEXT ( ( #223, #222, #221 ) ) REPRESENTATION_CONTEXT ( 'NONE', 'WORKASPACE' ) );
#229 = UNCERTAINTY_MEASURE_WITH_UNIT (LENGTH_MEASURE( 1.000000000000000100E-005 ), #223, 'distance_accuracy_value', 'NONE');
#230 = PRESENTATION_LAYER_ASSIGNMENT (  '', '', ( #231 ) ) ;
#231 = STYLED_ITEM ( 'NONE', ( #232 ), #137 ) ;
#232 = PRESENTATION_STYLE_ASSIGNMENT (( #233 ) ) ;
#233 = SURFACE_STYLE_USAGE ( .BOTH. , #234 ) ;
#234 = SURFACE_SIDE_STYLE ('',( #235 ) ) ;
#235 = SURFACE_STYLE_FILL_AREA ( #220 ) ;
#236 = CARTESIAN_POINT ( 'NONE',  ( 0.0000000000000000000, 0.0000000000000000000, -28.53499999999999700 ) ) ;
#237 = AXIS2_PLACEMENT_3D ( 'NONE', #236, #194, #193 ) ;
#238 = SPHERICAL_SURFACE ( 'NONE', #237, 30.89999999999999900 ) ;
#239 = CARTESIAN_POINT ( 'NONE',  ( -1.555250069354418700E-015, -12.69999999999999800, -0.3655129617168929000 ) ) ;
#240 = CARTESIAN_POINT ( 'NONE',  ( -12.69999999999999900, 1.555250069354419100E-015, -0.3655129617168937400 ) ) ;
#241 = CARTESIAN_POINT ( 'NONE',  ( 0.0000000000000000000, 1.892016816655572600E-015, 2.364999999999998900 ) ) ;
#242 = AXIS2_PLACEMENT_3D ( 'NONE', #256, #255, #254 ) ;
#243 = CIRCLE ( 'NONE', #242, 12.69999999999999900 ) ;
#244 = FILL_AREA_STYLE_COLOUR ( '', #253 ) ;
#245 = DIRECTION ( 'NONE',  ( -1.224606353822377300E-016, -1.000000000000000000, 0.0000000000000000000 ) ) ;
#246 = PRESENTATION_LAYER_ASSIGNMENT (  '', '', ( #247 ) ) ;
#247 = STYLED_ITEM ( 'NONE', ( #248 ), #148 ) ;
#248 = PRESENTATION_STYLE_ASSIGNMENT (( #249 ) ) ;
#249 = SURFACE_STYLE_USAGE ( .BOTH. , #250 ) ;
#250 = SURFACE_SIDE_STYLE ('',( #251 ) ) ;
#251 = SURFACE_STYLE_FILL_AREA ( #252 ) ;
#252 = FILL_AREA_STYLE ('',( #244 ) ) ;
#253 = COLOUR_RGB ( '',0.7960784313725489700, 0.8235294117647058400, 0.9372549019607843100 ) ;
#254 = DIRECTION ( 'NONE',  ( 1.000000000000000000, 0.0000000000000000000, 0.0000000000000000000 ) ) ;
#255 = DIRECTION ( 'NONE',  ( -0.0000000000000000000, -0.0000000000000000000, 1.000000000000000000 ) ) ;
#256 = CARTESIAN_POINT ( 'NONE',  ( 0.0000000000000000000, 0.0000000000000000000, -0.3655129617168937400 ) ) ;
#257 = AXIS2_PLACEMENT_3D ( 'NONE', #258, #259, #245 ) ;
#258 = CARTESIAN_POINT ( 'NONE',  ( 0.0000000000000000000, 0.0000000000000000000, -28.53499999999999700 ) ) ;
#259 = DIRECTION ( 'NONE',  ( -1.000000000000000000, 1.224606353822377300E-016, 0.0000000000000000000 ) ) ;
#260 = CIRCLE ( 'NONE', #257, 30.89999999999999900 ) ;
#261 = CARTESIAN_POINT ( 'NONE',  ( 12.69999999999999900, 0.0000000000000000000, -2.365000000000000700 ) ) ;
ENDSEC;
END-ISO-10303-21;
