ISO-10303-21;
HEADER;
FILE_DESCRIPTION (( 'STEP AP203' ),
    '1' );
FILE_NAME ('Web Model 68535.STEP',
    '2017-02-01T13:29:29',
    ( '' ),
    ( '' ),
    'SwSTEP 2.0',
    'SolidWorks 2016',
    '' );
FILE_SCHEMA (( 'CONFIG_CONTROL_DESIGN' ));
ENDSEC;

DATA;
#1 = SECURITY_CLASSIFICATION_LEVEL ( 'unclassified' ) ;
#2 = LINE ( 'NONE', #181, #249 ) ;
#3 = DATE_AND_TIME ( #23, #41 ) ;
#4 = APPLICATION_PROTOCOL_DEFINITION ( 'international standard', 'config_control_design', 1994, #87 ) ;
#5 = DIRECTION ( 'NONE',  ( 1.000000000000000000, 0.0000000000000000000, -0.0000000000000000000 ) ) ;
#6 = DIRECTION ( 'NONE',  ( -1.000000000000000000, 0.0000000000000000000, -0.0000000000000000000 ) ) ;
#7 = PRODUCT_DEFINITION ( 'UNKNOWN', '', #276, #44 ) ;
#8 = COORDINATED_UNIVERSAL_TIME_OFFSET ( 5, 0, .BEHIND. ) ;
#9 = ADVANCED_FACE ( 'NONE', ( #21 ), #191, .F. ) ;
#10 = AXIS2_PLACEMENT_3D ( 'NONE', #264, #183, #102 ) ;
#11 = EDGE_CURVE ( 'NONE', #128, #18, #124, .T. ) ;
#12 = EDGE_LOOP ( 'NONE', ( #232, #225, #61 ) ) ;
#13 = VERTEX_POINT ( 'NONE', #126 ) ;
#14 = EDGE_LOOP ( 'NONE', ( #118, #105, #298, #58 ) ) ;
#15 = PLANE ( 'NONE',  #66 ) ;
#16 = VECTOR ( 'NONE', #148, 1000.000000000000000 ) ;
#17 = CARTESIAN_POINT ( 'NONE',  ( 9.999999999999994700, 10.00000000000000000, -10.00000000000000000 ) ) ;
#18 = VERTEX_POINT ( 'NONE', #319 ) ;
#19 = DIRECTION ( 'NONE',  ( -1.000000000000000000, -0.0000000000000000000, -0.0000000000000000000 ) ) ;
#20 = ORIENTED_EDGE ( 'NONE', *, *, #26, .F. ) ;
#21 = FACE_OUTER_BOUND ( 'NONE', #115, .T. ) ;
#22 = CC_DESIGN_PERSON_AND_ORGANIZATION_ASSIGNMENT ( #71, #190, ( #154 ) ) ;
#23 = CALENDAR_DATE ( 2017, 1, 2 ) ;
#24 = PRODUCT_DEFINITION_SHAPE ( 'NONE', 'NONE',  #7 ) ;
#25 = ORIENTED_EDGE ( 'NONE', *, *, #230, .F. ) ;
#26 = EDGE_CURVE ( 'NONE', #280, #64, #89, .T. ) ;
#27 = CARTESIAN_POINT ( 'NONE',  ( -1.734723475976807100E-015, 10.00000000000000000, -10.00000000000000000 ) ) ;
#28 = CLOSED_SHELL ( 'NONE', ( #33, #176, #9, #308, #90 ) ) ;
#29 = DIRECTION ( 'NONE',  ( 3.469446951953614200E-016, 0.0000000000000000000, 1.000000000000000000 ) ) ;
#30 = CARTESIAN_POINT ( 'NONE',  ( 0.0000000000000000000, 0.0000000000000000000, 0.0000000000000000000 ) ) ;
#31 = ORIENTED_EDGE ( 'NONE', *, *, #316, .T. ) ;
#32 = ORIENTED_EDGE ( 'NONE', *, *, #11, .T. ) ;
#33 = ADVANCED_FACE ( 'NONE', ( #141 ), #82, .F. ) ;
#34 = VECTOR ( 'NONE', #156, 1000.000000000000000 ) ;
#35 = ADVANCED_FACE ( 'NONE', ( #140 ), #104, .T. ) ;
#36 = VECTOR ( 'NONE', #123, 1000.000000000000000 ) ;
#37 = CC_DESIGN_SECURITY_CLASSIFICATION ( #154, ( #276 ) ) ;
#38 = DATE_AND_TIME ( #96, #292 ) ;
#39 = MANIFOLD_SOLID_BREP ( 'Extrude2', #275 ) ;
#40 = LINE ( 'NONE', #145, #116 ) ;
#41 = LOCAL_TIME ( 8, 29, 29.00000000000000000, #143 ) ;
#42 = CC_DESIGN_PERSON_AND_ORGANIZATION_ASSIGNMENT ( #309, #299, ( #276 ) ) ;
#43 =( NAMED_UNIT ( * ) SI_UNIT ( $, .STERADIAN. ) SOLID_ANGLE_UNIT ( ) );
#44 = DESIGN_CONTEXT ( 'detailed design', #87, 'design' ) ;
#45 = CARTESIAN_POINT ( 'NONE',  ( 9.999999999999998200, 0.0000000000000000000, 0.0000000000000000000 ) ) ;
#46 = CALENDAR_DATE ( 2017, 1, 2 ) ;
#47 = VERTEX_POINT ( 'NONE', #269 ) ;
#48 = EDGE_CURVE ( 'NONE', #64, #296, #236, .T. ) ;
#49 = AXIS2_PLACEMENT_3D ( 'NONE', #162, #182, #158 ) ;
#50 = CARTESIAN_POINT ( 'NONE',  ( 9.999999999999998200, 10.00000000000000000, 0.0000000000000000000 ) ) ;
#51 = DIRECTION ( 'NONE',  ( 1.000000000000000000, -0.0000000000000000000, 0.0000000000000000000 ) ) ;
#52 = EDGE_LOOP ( 'NONE', ( #165, #311, #270, #150 ) ) ;
#53 = VECTOR ( 'NONE', #215, 1000.000000000000000 ) ;
#54 = APPROVAL_DATE_TIME ( #260, #97 ) ;
#55 = APPROVAL_ROLE ( '' ) ;
#56 = CARTESIAN_POINT ( 'NONE',  ( -1.734723475976807100E-015, 0.0000000000000000000, -10.00000000000000000 ) ) ;
#57 = CARTESIAN_POINT ( 'NONE',  ( 0.0000000000000000000, 10.00000000000000000, -10.00000000000000200 ) ) ;
#58 = ORIENTED_EDGE ( 'NONE', *, *, #160, .T. ) ;
#59 = PERSON_AND_ORGANIZATION ( #180, #205 ) ;
#60 = CARTESIAN_POINT ( 'NONE',  ( 9.999999999999994700, 10.00000000000000000, -10.00000000000000000 ) ) ;
#61 = ORIENTED_EDGE ( 'NONE', *, *, #65, .T. ) ;
#62 = CARTESIAN_POINT ( 'NONE',  ( 9.999999999999998200, 10.00000000000000000, 0.0000000000000000000 ) ) ;
#63 = CC_DESIGN_DATE_AND_TIME_ASSIGNMENT ( #142, #220, ( #154 ) ) ;
#64 = VERTEX_POINT ( 'NONE', #293 ) ;
#65 = EDGE_CURVE ( 'NONE', #91, #117, #40, .T. ) ;
#66 = AXIS2_PLACEMENT_3D ( 'NONE', #312, #98, #178 ) ;
#67 = APPROVAL_DATE_TIME ( #3, #263 ) ;
#68 = DIRECTION ( 'NONE',  ( 0.0000000000000000000, -1.000000000000000000, 0.0000000000000000000 ) ) ;
#69 = APPROVAL_PERSON_ORGANIZATION ( #59, #97, #55 ) ;
#70 = FACE_OUTER_BOUND ( 'NONE', #192, .T. ) ;
#71 = PERSON_AND_ORGANIZATION ( #180, #205 ) ;
#72 = LINE ( 'NONE', #210, #289 ) ;
#73 = PLANE ( 'NONE',  #10 ) ;
#74 = CARTESIAN_POINT ( 'NONE',  ( 10.00000000000000200, 10.00000000000000000, 0.0000000000000000000 ) ) ;
#75 = ORIENTED_EDGE ( 'NONE', *, *, #316, .F. ) ;
#76 = ORIENTED_EDGE ( 'NONE', *, *, #307, .F. ) ;
#77 = APPROVAL_PERSON_ORGANIZATION ( #167, #263, #193 ) ;
#78 = APPROVAL ( #130, 'UNSPECIFIED' ) ;
#79 = LOCAL_TIME ( 8, 29, 29.00000000000000000, #217 ) ;
#80 = VERTEX_POINT ( 'NONE', #295 ) ;
#81 = PERSON_AND_ORGANIZATION_ROLE ( 'creator' ) ;
#82 = PLANE ( 'NONE',  #153 ) ;
#83 = LOCAL_TIME ( 8, 29, 29.00000000000000000, #159 ) ;
#84 = ORIENTED_EDGE ( 'NONE', *, *, #48, .F. ) ;
#85 = AXIS2_PLACEMENT_3D ( 'NONE', #62, #172, #29 ) ;
#86 = PLANE ( 'NONE',  #200 ) ;
#87 = APPLICATION_CONTEXT ( 'configuration controlled 3d designs of mechanical parts and assemblies' ) ;
#88 = DIRECTION ( 'NONE',  ( -0.0000000000000000000, -0.0000000000000000000, 1.000000000000000000 ) ) ;
#89 = LINE ( 'NONE', #110, #242 ) ;
#90 = ADVANCED_FACE ( 'NONE', ( #279 ), #73, .T. ) ;
#91 = VERTEX_POINT ( 'NONE', #266 ) ;
#92 = EDGE_CURVE ( 'NONE', #164, #80, #320, .T. ) ;
#93 = ORIENTED_EDGE ( 'NONE', *, *, #189, .F. ) ;
#94 = VECTOR ( 'NONE', #147, 1000.000000000000000 ) ;
#95 = CARTESIAN_POINT ( 'NONE',  ( 9.999999999999998200, 10.00000000000000000, 0.0000000000000000000 ) ) ;
#96 = CALENDAR_DATE ( 2017, 1, 2 ) ;
#97 = APPROVAL ( #187, 'UNSPECIFIED' ) ;
#98 = DIRECTION ( 'NONE',  ( 0.0000000000000000000, -1.000000000000000000, 0.0000000000000000000 ) ) ;
#99 = DIRECTION ( 'NONE',  ( 0.0000000000000000000, 0.0000000000000000000, 1.000000000000000000 ) ) ;
#100 = CARTESIAN_POINT ( 'NONE',  ( 0.0000000000000000000, 10.00000000000000000, -10.00000000000000200 ) ) ;
#101 = CC_DESIGN_PERSON_AND_ORGANIZATION_ASSIGNMENT ( #244, #305, ( #219 ) ) ;
#102 = DIRECTION ( 'NONE',  ( 0.0000000000000000000, -0.0000000000000000000, -1.000000000000000000 ) ) ;
#103 = LINE ( 'NONE', #139, #144 ) ;
#104 = PLANE ( 'NONE',  #285 ) ;
#105 = ORIENTED_EDGE ( 'NONE', *, *, #301, .F. ) ;
#106 = UNCERTAINTY_MEASURE_WITH_UNIT (LENGTH_MEASURE( 1.000000000000000100E-005 ), #313, 'distance_accuracy_value', 'NONE');
#107 = VECTOR ( 'NONE', #88, 1000.000000000000000 ) ;
#108 = EDGE_CURVE ( 'NONE', #155, #91, #112, .T. ) ;
#109 = CC_DESIGN_PERSON_AND_ORGANIZATION_ASSIGNMENT ( #173, #222, ( #7 ) ) ;
#110 = CARTESIAN_POINT ( 'NONE',  ( 9.999999999999998200, 0.0000000000000000000, 0.0000000000000000000 ) ) ;
#111 = CARTESIAN_POINT ( 'NONE',  ( 9.999999999999994700, 0.0000000000000000000, -10.00000000000000000 ) ) ;
#112 = LINE ( 'NONE', #27, #53 ) ;
#113 = CARTESIAN_POINT ( 'NONE',  ( 9.999999999999994700, 10.00000000000000000, -10.00000000000000000 ) ) ;
#114 = PLANE ( 'NONE',  #243 ) ;
#115 = EDGE_LOOP ( 'NONE', ( #31, #202, #76, #32 ) ) ;
#116 = VECTOR ( 'NONE', #265, 1000.000000000000100 ) ;
#117 = VERTEX_POINT ( 'NONE', #50 ) ;
#118 = ORIENTED_EDGE ( 'NONE', *, *, #48, .T. ) ;
#119 = CARTESIAN_POINT ( 'NONE',  ( -1.734723475976807100E-015, 0.0000000000000000000, -10.00000000000000000 ) ) ;
#120 = EDGE_CURVE ( 'NONE', #13, #128, #103, .T. ) ;
#121 = CARTESIAN_POINT ( 'NONE',  ( 9.999999999999998200, 10.00000000000000000, 0.0000000000000000000 ) ) ;
#122 = CARTESIAN_POINT ( 'NONE',  ( 0.0000000000000000000, 10.00000000000000000, 0.0000000000000000000 ) ) ;
#123 = DIRECTION ( 'NONE',  ( -0.0000000000000000000, -1.000000000000000000, -0.0000000000000000000 ) ) ;
#124 = LINE ( 'NONE', #74, #94 ) ;
#125 = LINE ( 'NONE', #195, #136 ) ;
#126 = CARTESIAN_POINT ( 'NONE',  ( 0.0000000000000000000, 10.00000000000000000, 0.0000000000000000000 ) ) ;
#127 = ORIENTED_EDGE ( 'NONE', *, *, #211, .F. ) ;
#128 = VERTEX_POINT ( 'NONE', #251 ) ;
#129 = ORIENTED_EDGE ( 'NONE', *, *, #273, .F. ) ;
#130 = APPROVAL_STATUS ( 'not_yet_approved' ) ;
#131 = LINE ( 'NONE', #113, #252 ) ;
#132 = CARTESIAN_POINT ( 'NONE',  ( 0.0000000000000000000, 10.00000000000000000, -10.00000000000000200 ) ) ;
#133 = VECTOR ( 'NONE', #314, 1000.000000000000000 ) ;
#134 = APPLICATION_PROTOCOL_DEFINITION ( 'international standard', 'config_control_design', 1994, #290 ) ;
#135 = PLANE ( 'NONE',  #49 ) ;
#136 = VECTOR ( 'NONE', #306, 1000.000000000000100 ) ;
#137 = DIRECTION ( 'NONE',  ( -0.0000000000000000000, -0.0000000000000000000, 1.000000000000000000 ) ) ;
#138 = ORIENTED_EDGE ( 'NONE', *, *, #267, .T. ) ;
#139 = CARTESIAN_POINT ( 'NONE',  ( 0.0000000000000000000, 10.00000000000000000, 0.0000000000000000000 ) ) ;
#140 = FACE_OUTER_BOUND ( 'NONE', #286, .T. ) ;
#141 = FACE_OUTER_BOUND ( 'NONE', #318, .T. ) ;
#142 = DATE_AND_TIME ( #46, #83 ) ;
#143 = COORDINATED_UNIVERSAL_TIME_OFFSET ( 5, 0, .BEHIND. ) ;
#144 = VECTOR ( 'NONE', #151, 1000.000000000000000 ) ;
#145 = CARTESIAN_POINT ( 'NONE',  ( -1.734723475976807100E-015, 10.00000000000000000, -10.00000000000000000 ) ) ;
#146 = ORIENTED_EDGE ( 'NONE', *, *, #92, .T. ) ;
#147 = DIRECTION ( 'NONE',  ( -0.0000000000000000000, -1.000000000000000000, -0.0000000000000000000 ) ) ;
#148 = DIRECTION ( 'NONE',  ( 1.000000000000000000, 0.0000000000000000000, 0.0000000000000000000 ) ) ;
#149 = ORIENTED_EDGE ( 'NONE', *, *, #120, .F. ) ;
#150 = ORIENTED_EDGE ( 'NONE', *, *, #273, .T. ) ;
#151 = DIRECTION ( 'NONE',  ( 1.000000000000000000, 0.0000000000000000000, 0.0000000000000000000 ) ) ;
#152 = LINE ( 'NONE', #208, #34 ) ;
#153 = AXIS2_PLACEMENT_3D ( 'NONE', #122, #51, #216 ) ;
#154 = SECURITY_CLASSIFICATION ( '', '', #1 ) ;
#155 = VERTEX_POINT ( 'NONE', #60 ) ;
#156 = DIRECTION ( 'NONE',  ( -0.0000000000000000000, -1.000000000000000000, -0.0000000000000000000 ) ) ;
#157 = DIRECTION ( 'NONE',  ( 0.0000000000000000000, 0.0000000000000000000, -1.000000000000000000 ) ) ;
#158 = DIRECTION ( 'NONE',  ( -0.7071067811865474600, 0.0000000000000000000, -0.7071067811865474600 ) ) ;
#159 = COORDINATED_UNIVERSAL_TIME_OFFSET ( 5, 0, .BEHIND. ) ;
#160 = EDGE_CURVE ( 'NONE', #155, #64, #131, .T. ) ;
#161 = PRODUCT_RELATED_PRODUCT_CATEGORY ( 'detail', '', ( #219 ) ) ;
#162 = CARTESIAN_POINT ( 'NONE',  ( -1.734723475976807100E-015, 10.00000000000000000, -10.00000000000000000 ) ) ;
#163 = VECTOR ( 'NONE', #19, 1000.000000000000000 ) ;
#164 = VERTEX_POINT ( 'NONE', #274 ) ;
#165 = ORIENTED_EDGE ( 'NONE', *, *, #26, .T. ) ;
#166 = FACE_OUTER_BOUND ( 'NONE', #214, .T. ) ;
#167 = PERSON_AND_ORGANIZATION ( #180, #205 ) ;
#168 = MANIFOLD_SOLID_BREP ( 'Extrude1', #28 ) ;
#169 = ORIENTED_EDGE ( 'NONE', *, *, #120, .T. ) ;
#170 = DATE_TIME_ROLE ( 'creation_date' ) ;
#171 = CC_DESIGN_PERSON_AND_ORGANIZATION_ASSIGNMENT ( #282, #81, ( #276 ) ) ;
#172 = DIRECTION ( 'NONE',  ( -1.000000000000000000, 0.0000000000000000000, 3.469446951953614200E-016 ) ) ;
#173 = PERSON_AND_ORGANIZATION ( #180, #205 ) ;
#174 = DIRECTION ( 'NONE',  ( 0.0000000000000000000, 0.0000000000000000000, -1.000000000000000000 ) ) ;
#175 = ADVANCED_FACE ( 'NONE', ( #203 ), #86, .F. ) ;
#176 = ADVANCED_FACE ( 'NONE', ( #185 ), #114, .F. ) ;
#177 = ORIENTED_EDGE ( 'NONE', *, *, #302, .T. ) ;
#178 = DIRECTION ( 'NONE',  ( 0.0000000000000000000, -0.0000000000000000000, -1.000000000000000000 ) ) ;
#179 = LINE ( 'NONE', #228, #107 ) ;
#180 = PERSON ( 'UNSPECIFIED', 'UNSPECIFIED', 'UNSPECIFIED', ('UNSPECIFIED'), ('UNSPECIFIED'), ('UNSPECIFIED') ) ;
#181 = CARTESIAN_POINT ( 'NONE',  ( 0.0000000000000000000, 0.0000000000000000000, -10.00000000000000200 ) ) ;
#182 = DIRECTION ( 'NONE',  ( 0.7071067811865475700, 0.0000000000000000000, -0.7071067811865475700 ) ) ;
#183 = DIRECTION ( 'NONE',  ( 0.0000000000000000000, -1.000000000000000000, 0.0000000000000000000 ) ) ;
#184 = ORIENTED_EDGE ( 'NONE', *, *, #230, .T. ) ;
#185 = FACE_OUTER_BOUND ( 'NONE', #207, .T. ) ;
#186 = LINE ( 'NONE', #30, #16 ) ;
#187 = APPROVAL_STATUS ( 'not_yet_approved' ) ;
#188 = DATE_AND_TIME ( #199, #79 ) ;
#189 = EDGE_CURVE ( 'NONE', #47, #18, #186, .T. ) ;
#190 = PERSON_AND_ORGANIZATION_ROLE ( 'classification_officer' ) ;
#191 = PLANE ( 'NONE',  #294 ) ;
#192 = EDGE_LOOP ( 'NONE', ( #184, #169, #241 ) ) ;
#193 = APPROVAL_ROLE ( '' ) ;
#194 = DIRECTION ( 'NONE',  ( -0.0000000000000000000, -1.000000000000000000, -0.0000000000000000000 ) ) ;
#195 = CARTESIAN_POINT ( 'NONE',  ( -1.734723475976807100E-015, 0.0000000000000000000, -10.00000000000000000 ) ) ;
#196 = PLANE ( 'NONE',  #85 ) ;
#197 = CARTESIAN_POINT ( 'NONE',  ( 0.0000000000000000000, 10.00000000000000000, 0.0000000000000000000 ) ) ;
#198 = ADVANCED_FACE ( 'NONE', ( #262 ), #196, .F. ) ;
#199 = CALENDAR_DATE ( 2017, 1, 2 ) ;
#200 = AXIS2_PLACEMENT_3D ( 'NONE', #272, #304, #5 ) ;
#201 = AXIS2_PLACEMENT_3D ( 'NONE', #206, #99, #261 ) ;
#202 = ORIENTED_EDGE ( 'NONE', *, *, #92, .F. ) ;
#203 = FACE_OUTER_BOUND ( 'NONE', #14, .T. ) ;
#204 =( NAMED_UNIT ( * ) PLANE_ANGLE_UNIT ( ) SI_UNIT ( $, .RADIAN. ) );
#205 = ORGANIZATION ( 'UNSPECIFIED', 'UNSPECIFIED', '' ) ;
#206 = CARTESIAN_POINT ( 'NONE',  ( 0.0000000000000000000, 0.0000000000000000000, 0.0000000000000000000 ) ) ;
#207 = EDGE_LOOP ( 'NONE', ( #227, #209, #149, #177 ) ) ;
#208 = CARTESIAN_POINT ( 'NONE',  ( -1.734723475976807100E-015, 10.00000000000000000, -10.00000000000000000 ) ) ;
#209 = ORIENTED_EDGE ( 'NONE', *, *, #11, .F. ) ;
#210 = CARTESIAN_POINT ( 'NONE',  ( 0.0000000000000000000, 10.00000000000000000, 0.0000000000000000000 ) ) ;
#211 = EDGE_CURVE ( 'NONE', #296, #280, #125, .T. ) ;
#212 = DIRECTION ( 'NONE',  ( -0.7071067811865475700, 0.0000000000000000000, 0.7071067811865475700 ) ) ;
#213 = APPROVAL_DATE_TIME ( #38, #78 ) ;
#214 = EDGE_LOOP ( 'NONE', ( #257, #129, #284, #231 ) ) ;
#215 = DIRECTION ( 'NONE',  ( -1.000000000000000000, -0.0000000000000000000, -0.0000000000000000000 ) ) ;
#216 = DIRECTION ( 'NONE',  ( 0.0000000000000000000, 0.0000000000000000000, -1.000000000000000000 ) ) ;
#217 = COORDINATED_UNIVERSAL_TIME_OFFSET ( 5, 0, .BEHIND. ) ;
#218 = PERSON_AND_ORGANIZATION ( #180, #205 ) ;
#219 = PRODUCT ( 'Web Model 68535', 'Web Model 68535', '', ( #224 ) ) ;
#220 = DATE_TIME_ROLE ( 'classification_date' ) ;
#221 = EDGE_LOOP ( 'NONE', ( #303, #75, #93 ) ) ;
#222 = PERSON_AND_ORGANIZATION_ROLE ( 'creator' ) ;
#223 = DIRECTION ( 'NONE',  ( -3.469446951953614200E-016, 0.0000000000000000000, -1.000000000000000000 ) ) ;
#224 = MECHANICAL_CONTEXT ( 'NONE', #290, 'mechanical' ) ;
#225 = ORIENTED_EDGE ( 'NONE', *, *, #108, .T. ) ;
#226 = CC_DESIGN_APPROVAL ( #78, ( #154 ) ) ;
#227 = ORIENTED_EDGE ( 'NONE', *, *, #189, .T. ) ;
#228 = CARTESIAN_POINT ( 'NONE',  ( 0.0000000000000000000, 10.00000000000000000, 0.0000000000000000000 ) ) ;
#229 = CALENDAR_DATE ( 2017, 1, 2 ) ;
#230 = EDGE_CURVE ( 'NONE', #164, #13, #179, .T. ) ;
#231 = ORIENTED_EDGE ( 'NONE', *, *, #301, .T. ) ;
#232 = ORIENTED_EDGE ( 'NONE', *, *, #283, .T. ) ;
#233 = DIRECTION ( 'NONE',  ( -3.469446951953614200E-016, 0.0000000000000000000, -1.000000000000000000 ) ) ;
#234 = FACE_OUTER_BOUND ( 'NONE', #12, .T. ) ;
#235 = VECTOR ( 'NONE', #233, 1000.000000000000000 ) ;
#236 = LINE ( 'NONE', #56, #163 ) ;
#237 = ORIENTED_EDGE ( 'NONE', *, *, #302, .F. ) ;
#238 = APPROVAL_PERSON_ORGANIZATION ( #218, #78, #246 ) ;
#239 = DIRECTION ( 'NONE',  ( -0.0000000000000000000, -1.000000000000000000, -0.0000000000000000000 ) ) ;
#240 = DIRECTION ( 'NONE',  ( 0.0000000000000000000, -1.000000000000000000, 0.0000000000000000000 ) ) ;
#241 = ORIENTED_EDGE ( 'NONE', *, *, #307, .T. ) ;
#242 = VECTOR ( 'NONE', #223, 1000.000000000000000 ) ;
#243 = AXIS2_PLACEMENT_3D ( 'NONE', #197, #174, #6 ) ;
#244 = PERSON_AND_ORGANIZATION ( #180, #205 ) ;
#245 = LINE ( 'NONE', #95, #235 ) ;
#246 = APPROVAL_ROLE ( '' ) ;
#247 = DIRECTION ( 'NONE',  ( 0.0000000000000000000, 0.0000000000000000000, -1.000000000000000000 ) ) ;
#248 = PLANE ( 'NONE',  #317 ) ;
#249 = VECTOR ( 'NONE', #315, 1000.000000000000100 ) ;
#250 = APPROVAL_STATUS ( 'not_yet_approved' ) ;
#251 = CARTESIAN_POINT ( 'NONE',  ( 10.00000000000000200, 10.00000000000000000, 0.0000000000000000000 ) ) ;
#252 = VECTOR ( 'NONE', #194, 1000.000000000000000 ) ;
#253 = LOCAL_TIME ( 8, 29, 29.00000000000000000, #297 ) ;
#254 = ADVANCED_FACE ( 'NONE', ( #234 ), #248, .F. ) ;
#255 = SHAPE_DEFINITION_REPRESENTATION ( #24, #300 ) ;
#256 = VECTOR ( 'NONE', #137, 1000.000000000000000 ) ;
#257 = ORIENTED_EDGE ( 'NONE', *, *, #211, .T. ) ;
#258 = CC_DESIGN_APPROVAL ( #263, ( #7 ) ) ;
#259 = CC_DESIGN_DATE_AND_TIME_ASSIGNMENT ( #188, #170, ( #7 ) ) ;
#260 = DATE_AND_TIME ( #229, #253 ) ;
#261 = DIRECTION ( 'NONE',  ( 1.000000000000000000, 0.0000000000000000000, 0.0000000000000000000 ) ) ;
#262 = FACE_OUTER_BOUND ( 'NONE', #52, .T. ) ;
#263 = APPROVAL ( #250, 'UNSPECIFIED' ) ;
#264 = CARTESIAN_POINT ( 'NONE',  ( 0.0000000000000000000, 0.0000000000000000000, 0.0000000000000000000 ) ) ;
#265 = DIRECTION ( 'NONE',  ( 0.7071067811865474600, 0.0000000000000000000, 0.7071067811865474600 ) ) ;
#266 = CARTESIAN_POINT ( 'NONE',  ( -1.734723475976807100E-015, 10.00000000000000000, -10.00000000000000000 ) ) ;
#267 = EDGE_CURVE ( 'NONE', #80, #47, #287, .T. ) ;
#268 =( GEOMETRIC_REPRESENTATION_CONTEXT ( 3 ) GLOBAL_UNCERTAINTY_ASSIGNED_CONTEXT ( ( #106 ) ) GLOBAL_UNIT_ASSIGNED_CONTEXT ( ( #313, #204, #43 ) ) REPRESENTATION_CONTEXT ( 'NONE', 'WORKASPACE' ) );
#269 = CARTESIAN_POINT ( 'NONE',  ( 0.0000000000000000000, 0.0000000000000000000, 0.0000000000000000000 ) ) ;
#270 = ORIENTED_EDGE ( 'NONE', *, *, #283, .F. ) ;
#271 = DIRECTION ( 'NONE',  ( 0.7071067811865474600, 0.0000000000000000000, 0.7071067811865474600 ) ) ;
#272 = CARTESIAN_POINT ( 'NONE',  ( -1.734723475976807100E-015, 10.00000000000000000, -10.00000000000000000 ) ) ;
#273 = EDGE_CURVE ( 'NONE', #117, #280, #310, .T. ) ;
#274 = CARTESIAN_POINT ( 'NONE',  ( 0.0000000000000000000, 10.00000000000000000, -10.00000000000000200 ) ) ;
#275 = CLOSED_SHELL ( 'NONE', ( #198, #175, #281, #254, #35 ) ) ;
#276 = PRODUCT_DEFINITION_FORMATION_WITH_SPECIFIED_SOURCE ( 'ANY', '', #219, .NOT_KNOWN. ) ;
#277 = LINE ( 'NONE', #132, #278 ) ;
#278 = VECTOR ( 'NONE', #288, 1000.000000000000100 ) ;
#279 = FACE_OUTER_BOUND ( 'NONE', #221, .T. ) ;
#280 = VERTEX_POINT ( 'NONE', #45 ) ;
#281 = ADVANCED_FACE ( 'NONE', ( #166 ), #135, .F. ) ;
#282 = PERSON_AND_ORGANIZATION ( #180, #205 ) ;
#283 = EDGE_CURVE ( 'NONE', #117, #155, #245, .T. ) ;
#284 = ORIENTED_EDGE ( 'NONE', *, *, #65, .F. ) ;
#285 = AXIS2_PLACEMENT_3D ( 'NONE', #111, #240, #247 ) ;
#286 = EDGE_LOOP ( 'NONE', ( #20, #127, #84 ) ) ;
#287 = LINE ( 'NONE', #291, #256 ) ;
#288 = DIRECTION ( 'NONE',  ( -0.7071067811865474600, -0.0000000000000000000, -0.7071067811865474600 ) ) ;
#289 = VECTOR ( 'NONE', #239, 1000.000000000000000 ) ;
#290 = APPLICATION_CONTEXT ( 'configuration controlled 3d designs of mechanical parts and assemblies' ) ;
#291 = CARTESIAN_POINT ( 'NONE',  ( 0.0000000000000000000, 0.0000000000000000000, 0.0000000000000000000 ) ) ;
#292 = LOCAL_TIME ( 8, 29, 29.00000000000000000, #8 ) ;
#293 = CARTESIAN_POINT ( 'NONE',  ( 9.999999999999994700, 0.0000000000000000000, -10.00000000000000000 ) ) ;
#294 = AXIS2_PLACEMENT_3D ( 'NONE', #57, #212, #271 ) ;
#295 = CARTESIAN_POINT ( 'NONE',  ( 0.0000000000000000000, 0.0000000000000000000, -10.00000000000000200 ) ) ;
#296 = VERTEX_POINT ( 'NONE', #119 ) ;
#297 = COORDINATED_UNIVERSAL_TIME_OFFSET ( 5, 0, .BEHIND. ) ;
#298 = ORIENTED_EDGE ( 'NONE', *, *, #108, .F. ) ;
#299 = PERSON_AND_ORGANIZATION_ROLE ( 'design_supplier' ) ;
#300 = ADVANCED_BREP_SHAPE_REPRESENTATION ( 'Web Model 68535', ( #168, #39, #201 ), #268 ) ;
#301 = EDGE_CURVE ( 'NONE', #91, #296, #152, .T. ) ;
#302 = EDGE_CURVE ( 'NONE', #13, #47, #72, .T. ) ;
#303 = ORIENTED_EDGE ( 'NONE', *, *, #267, .F. ) ;
#304 = DIRECTION ( 'NONE',  ( 0.0000000000000000000, 0.0000000000000000000, 1.000000000000000000 ) ) ;
#305 = PERSON_AND_ORGANIZATION_ROLE ( 'design_owner' ) ;
#306 = DIRECTION ( 'NONE',  ( 0.7071067811865474600, 0.0000000000000000000, 0.7071067811865474600 ) ) ;
#307 = EDGE_CURVE ( 'NONE', #128, #164, #277, .T. ) ;
#308 = ADVANCED_FACE ( 'NONE', ( #70 ), #15, .F. ) ;
#309 = PERSON_AND_ORGANIZATION ( #180, #205 ) ;
#310 = LINE ( 'NONE', #121, #133 ) ;
#311 = ORIENTED_EDGE ( 'NONE', *, *, #160, .F. ) ;
#312 = CARTESIAN_POINT ( 'NONE',  ( 0.0000000000000000000, 10.00000000000000000, 0.0000000000000000000 ) ) ;
#313 =( LENGTH_UNIT ( ) NAMED_UNIT ( * ) SI_UNIT ( .MILLI., .METRE. ) );
#314 = DIRECTION ( 'NONE',  ( -0.0000000000000000000, -1.000000000000000000, -0.0000000000000000000 ) ) ;
#315 = DIRECTION ( 'NONE',  ( -0.7071067811865474600, -0.0000000000000000000, -0.7071067811865474600 ) ) ;
#316 = EDGE_CURVE ( 'NONE', #18, #80, #2, .T. ) ;
#317 = AXIS2_PLACEMENT_3D ( 'NONE', #17, #68, #157 ) ;
#318 = EDGE_LOOP ( 'NONE', ( #138, #237, #25, #146 ) ) ;
#319 = CARTESIAN_POINT ( 'NONE',  ( 10.00000000000000200, 0.0000000000000000000, 0.0000000000000000000 ) ) ;
#320 = LINE ( 'NONE', #100, #36 ) ;
#321 = CC_DESIGN_APPROVAL ( #97, ( #276 ) ) ;
ENDSEC;
END-ISO-10303-21;
