ISO-10303-21;
HEADER;
FILE_DESCRIPTION (( 'STEP AP203' ),
    '1' );
FILE_NAME ('34602_34602.step',
    '2017-08-24T13:10:45',
    ( '' ),
    ( '' ),
    'SwSTEP 2.0',
    'SolidWorks 2016',
    '' );
FILE_SCHEMA (( 'CONFIG_CONTROL_DESIGN' ));
ENDSEC;

DATA;
#1 = ADVANCED_FACE ( 'NONE', ( #67 ), #82, .T. ) ;
#2 = AXIS2_PLACEMENT_3D ( 'NONE', #25, #161, #28 ) ;
#3 = APPROVAL_DATE_TIME ( #10, #6 ) ;
#4 = DIRECTION ( 'NONE',  ( 0.0000000000000000000, 0.0000000000000000000, 1.000000000000000000 ) ) ;
#5 = PRODUCT ( '34602_34602', '34602_34602', '', ( #35 ) ) ;
#6 = APPROVAL ( #87, 'UNSPECIFIED' ) ;
#7 = APPROVAL_PERSON_ORGANIZATION ( #85, #6, #127 ) ;
#8 = CC_DESIGN_APPROVAL ( #6, ( #55 ) ) ;
#9 = LINE ( 'NONE', #80, #117 ) ;
#10 = DATE_AND_TIME ( #39, #137 ) ;
#11 = AXIS2_PLACEMENT_3D ( 'NONE', #148, #45, #167 ) ;
#12 = FACE_OUTER_BOUND ( 'NONE', #44, .T. ) ;
#13 = DIRECTION ( 'NONE',  ( -0.0000000000000000000, -0.0000000000000000000, -1.000000000000000000 ) ) ;
#14 = EDGE_CURVE ( 'NONE', #22, #54, #59, .T. ) ;
#15 = CARTESIAN_POINT ( 'NONE',  ( 0.0000000000000000000, 0.0000000000000000000, 6.000000000000000000 ) ) ;
#16 = DIRECTION ( 'NONE',  ( 1.000000000000000000, 0.0000000000000000000, 0.0000000000000000000 ) ) ;
#17 = CIRCLE ( 'NONE', #104, 25.00000000000000000 ) ;
#18 = CARTESIAN_POINT ( 'NONE',  ( 25.00000000000000000, 3.061616997868383000E-015, 0.0000000000000000000 ) ) ;
#19 = DIRECTION ( 'NONE',  ( 1.000000000000000000, 0.0000000000000000000, 0.0000000000000000000 ) ) ;
#20 = CARTESIAN_POINT ( 'NONE',  ( 0.0000000000000000000, 0.0000000000000000000, 0.0000000000000000000 ) ) ;
#21 = CALENDAR_DATE ( 2017, 24, 8 ) ;
#22 = VERTEX_POINT ( 'NONE', #166 ) ;
#23 = EDGE_CURVE ( 'NONE', #98, #51, #17, .T. ) ;
#24 = PRODUCT_DEFINITION ( 'UNKNOWN', '', #55, #162 ) ;
#25 = CARTESIAN_POINT ( 'NONE',  ( 0.0000000000000000000, 0.0000000000000000000, 6.000000000000000000 ) ) ;
#26 = LOCAL_TIME ( 9, 10, 45.00000000000000000, #131 ) ;
#27 = DIRECTION ( 'NONE',  ( 0.0000000000000000000, 0.0000000000000000000, 1.000000000000000000 ) ) ;
#28 = DIRECTION ( 'NONE',  ( 1.000000000000000000, 0.0000000000000000000, -0.0000000000000000000 ) ) ;
#29 = CC_DESIGN_PERSON_AND_ORGANIZATION_ASSIGNMENT ( #157, #60, ( #24 ) ) ;
#30 = DIRECTION ( 'NONE',  ( -0.0000000000000000000, -0.0000000000000000000, -1.000000000000000000 ) ) ;
#31 = APPLICATION_CONTEXT ( 'configuration controlled 3d designs of mechanical parts and assemblies' ) ;
#32 = COORDINATED_UNIVERSAL_TIME_OFFSET ( 5, 0, .BEHIND. ) ;
#33 = ORIENTED_EDGE ( 'NONE', *, *, #90, .F. ) ;
#34 = PERSON_AND_ORGANIZATION_ROLE ( 'design_owner' ) ;
#35 = MECHANICAL_CONTEXT ( 'NONE', #168, 'mechanical' ) ;
#36 = CARTESIAN_POINT ( 'NONE',  ( 0.0000000000000000000, 0.0000000000000000000, 0.0000000000000000000 ) ) ;
#37 = ORIENTED_EDGE ( 'NONE', *, *, #64, .T. ) ;
#38 = AXIS2_PLACEMENT_3D ( 'NONE', #86, #101, #96 ) ;
#39 = CALENDAR_DATE ( 2017, 24, 8 ) ;
#40 = UNCERTAINTY_MEASURE_WITH_UNIT (LENGTH_MEASURE( 1.000000000000000100E-005 ), #125, 'distance_accuracy_value', 'NONE');
#41 = DATE_AND_TIME ( #109, #113 ) ;
#42 = ORIENTED_EDGE ( 'NONE', *, *, #120, .T. ) ;
#43 = CARTESIAN_POINT ( 'NONE',  ( 0.0000000000000000000, 0.0000000000000000000, 6.000000000000000000 ) ) ;
#44 = EDGE_LOOP ( 'NONE', ( #33, #132, #107, #110 ) ) ;
#45 = DIRECTION ( 'NONE',  ( 0.0000000000000000000, 0.0000000000000000000, 1.000000000000000000 ) ) ;
#46 = DATE_TIME_ROLE ( 'creation_date' ) ;
#47 = PERSON_AND_ORGANIZATION_ROLE ( 'creator' ) ;
#48 = AXIS2_PLACEMENT_3D ( 'NONE', #15, #27, #16 ) ;
#49 = APPLICATION_PROTOCOL_DEFINITION ( 'international standard', 'config_control_design', 1994, #31 ) ;
#50 = COORDINATED_UNIVERSAL_TIME_OFFSET ( 5, 0, .BEHIND. ) ;
#51 = VERTEX_POINT ( 'NONE', #115 ) ;
#52 = CC_DESIGN_DATE_AND_TIME_ASSIGNMENT ( #111, #124, ( #73 ) ) ;
#53 = APPROVAL_PERSON_ORGANIZATION ( #77, #149, #118 ) ;
#54 = VERTEX_POINT ( 'NONE', #18 ) ;
#55 = PRODUCT_DEFINITION_FORMATION_WITH_SPECIFIED_SOURCE ( 'ANY', '', #5, .NOT_KNOWN. ) ;
#56 = DIRECTION ( 'NONE',  ( 0.0000000000000000000, 0.0000000000000000000, 1.000000000000000000 ) ) ;
#57 = ORIENTED_EDGE ( 'NONE', *, *, #90, .T. ) ;
#58 = PERSON_AND_ORGANIZATION_ROLE ( 'classification_officer' ) ;
#59 = CIRCLE ( 'NONE', #78, 25.00000000000000000 ) ;
#60 = PERSON_AND_ORGANIZATION_ROLE ( 'creator' ) ;
#61 = CALENDAR_DATE ( 2017, 24, 8 ) ;
#62 = ORIENTED_EDGE ( 'NONE', *, *, #114, .F. ) ;
#63 = ORGANIZATION ( 'UNSPECIFIED', 'UNSPECIFIED', '' ) ;
#64 = EDGE_CURVE ( 'NONE', #54, #22, #160, .T. ) ;
#65 = CALENDAR_DATE ( 2017, 24, 8 ) ;
#66 = COORDINATED_UNIVERSAL_TIME_OFFSET ( 5, 0, .BEHIND. ) ;
#67 = FACE_OUTER_BOUND ( 'NONE', #92, .T. ) ;
#68 = PERSON ( 'UNSPECIFIED', 'UNSPECIFIED', 'UNSPECIFIED', ('UNSPECIFIED'), ('UNSPECIFIED'), ('UNSPECIFIED') ) ;
#69 = DIRECTION ( 'NONE',  ( 1.000000000000000000, 0.0000000000000000000, 0.0000000000000000000 ) ) ;
#70 = CARTESIAN_POINT ( 'NONE',  ( 25.00000000000000000, 3.061616997868383000E-015, 6.000000000000000000 ) ) ;
#71 =( NAMED_UNIT ( * ) PLANE_ANGLE_UNIT ( ) SI_UNIT ( $, .RADIAN. ) );
#72 = SECURITY_CLASSIFICATION_LEVEL ( 'unclassified' ) ;
#73 = SECURITY_CLASSIFICATION ( '', '', #72 ) ;
#74 = DIRECTION ( 'NONE',  ( 1.000000000000000000, 0.0000000000000000000, -0.0000000000000000000 ) ) ;
#75 = DATE_AND_TIME ( #21, #145 ) ;
#76 = CC_DESIGN_PERSON_AND_ORGANIZATION_ASSIGNMENT ( #143, #47, ( #55 ) ) ;
#77 = PERSON_AND_ORGANIZATION ( #68, #63 ) ;
#78 = AXIS2_PLACEMENT_3D ( 'NONE', #95, #56, #147 ) ;
#79 = PRODUCT_DEFINITION_SHAPE ( 'NONE', 'NONE',  #24 ) ;
#80 = CARTESIAN_POINT ( 'NONE',  ( -25.00000000000000000, 0.0000000000000000000, 6.000000000000000000 ) ) ;
#81 = PERSON_AND_ORGANIZATION ( #68, #63 ) ;
#82 = PLANE ( 'NONE',  #2 ) ;
#83 = ADVANCED_BREP_SHAPE_REPRESENTATION ( '34602_34602', ( #123, #172 ), #155 ) ;
#84 = CARTESIAN_POINT ( 'NONE',  ( 25.00000000000000000, 3.061616997868383000E-015, 6.000000000000000000 ) ) ;
#85 = PERSON_AND_ORGANIZATION ( #68, #63 ) ;
#86 = CARTESIAN_POINT ( 'NONE',  ( 0.0000000000000000000, 0.0000000000000000000, 6.000000000000000000 ) ) ;
#87 = APPROVAL_STATUS ( 'not_yet_approved' ) ;
#88 = APPROVAL_STATUS ( 'not_yet_approved' ) ;
#89 = LINE ( 'NONE', #84, #151 ) ;
#90 = EDGE_CURVE ( 'NONE', #98, #54, #89, .T. ) ;
#91 = COORDINATED_UNIVERSAL_TIME_OFFSET ( 5, 0, .BEHIND. ) ;
#92 = EDGE_LOOP ( 'NONE', ( #42, #128 ) ) ;
#93 = FACE_OUTER_BOUND ( 'NONE', #122, .T. ) ;
#94 = CARTESIAN_POINT ( 'NONE',  ( 0.0000000000000000000, 0.0000000000000000000, 6.000000000000000000 ) ) ;
#95 = CARTESIAN_POINT ( 'NONE',  ( 0.0000000000000000000, 0.0000000000000000000, 0.0000000000000000000 ) ) ;
#96 = DIRECTION ( 'NONE',  ( -1.000000000000000000, 0.0000000000000000000, 0.0000000000000000000 ) ) ;
#97 = PERSON_AND_ORGANIZATION ( #68, #63 ) ;
#98 = VERTEX_POINT ( 'NONE', #70 ) ;
#99 = AXIS2_PLACEMENT_3D ( 'NONE', #94, #30, #100 ) ;
#100 = DIRECTION ( 'NONE',  ( -1.000000000000000000, 0.0000000000000000000, 0.0000000000000000000 ) ) ;
#101 = DIRECTION ( 'NONE',  ( -0.0000000000000000000, -0.0000000000000000000, -1.000000000000000000 ) ) ;
#102 = APPLICATION_PROTOCOL_DEFINITION ( 'international standard', 'config_control_design', 1994, #168 ) ;
#103 = DIRECTION ( 'NONE',  ( 0.0000000000000000000, 0.0000000000000000000, 1.000000000000000000 ) ) ;
#104 = AXIS2_PLACEMENT_3D ( 'NONE', #43, #4, #69 ) ;
#105 = DIRECTION ( 'NONE',  ( 0.0000000000000000000, 0.0000000000000000000, 1.000000000000000000 ) ) ;
#106 = APPROVAL_PERSON_ORGANIZATION ( #81, #129, #141 ) ;
#107 = ORIENTED_EDGE ( 'NONE', *, *, #114, .T. ) ;
#108 = CC_DESIGN_PERSON_AND_ORGANIZATION_ASSIGNMENT ( #97, #34, ( #5 ) ) ;
#109 = CALENDAR_DATE ( 2017, 24, 8 ) ;
#110 = ORIENTED_EDGE ( 'NONE', *, *, #14, .T. ) ;
#111 = DATE_AND_TIME ( #61, #26 ) ;
#112 = ADVANCED_FACE ( 'NONE', ( #12 ), #173, .T. ) ;
#113 = LOCAL_TIME ( 9, 10, 45.00000000000000000, #32 ) ;
#114 = EDGE_CURVE ( 'NONE', #51, #22, #9, .T. ) ;
#115 = CARTESIAN_POINT ( 'NONE',  ( -25.00000000000000000, 0.0000000000000000000, 6.000000000000000000 ) ) ;
#116 = LOCAL_TIME ( 9, 10, 45.00000000000000000, #50 ) ;
#117 = VECTOR ( 'NONE', #13, 1000.000000000000000 ) ;
#118 = APPROVAL_ROLE ( '' ) ;
#119 = PERSON_AND_ORGANIZATION ( #68, #63 ) ;
#120 = EDGE_CURVE ( 'NONE', #51, #98, #134, .T. ) ;
#121 = CC_DESIGN_SECURITY_CLASSIFICATION ( #73, ( #55 ) ) ;
#122 = EDGE_LOOP ( 'NONE', ( #130, #138 ) ) ;
#123 = MANIFOLD_SOLID_BREP ( 'Boss-Extrude1', #158 ) ;
#124 = DATE_TIME_ROLE ( 'classification_date' ) ;
#125 =( LENGTH_UNIT ( ) NAMED_UNIT ( * ) SI_UNIT ( .MILLI., .METRE. ) );
#126 = AXIS2_PLACEMENT_3D ( 'NONE', #20, #103, #74 ) ;
#127 = APPROVAL_ROLE ( '' ) ;
#128 = ORIENTED_EDGE ( 'NONE', *, *, #23, .T. ) ;
#129 = APPROVAL ( #88, 'UNSPECIFIED' ) ;
#130 = ORIENTED_EDGE ( 'NONE', *, *, #14, .F. ) ;
#131 = COORDINATED_UNIVERSAL_TIME_OFFSET ( 5, 0, .BEHIND. ) ;
#132 = ORIENTED_EDGE ( 'NONE', *, *, #120, .F. ) ;
#133 = PRODUCT_RELATED_PRODUCT_CATEGORY ( 'detail', '', ( #5 ) ) ;
#134 = CIRCLE ( 'NONE', #48, 25.00000000000000000 ) ;
#135 = CC_DESIGN_DATE_AND_TIME_ASSIGNMENT ( #170, #46, ( #24 ) ) ;
#136 = DIRECTION ( 'NONE',  ( -0.0000000000000000000, -0.0000000000000000000, -1.000000000000000000 ) ) ;
#137 = LOCAL_TIME ( 9, 10, 45.00000000000000000, #91 ) ;
#138 = ORIENTED_EDGE ( 'NONE', *, *, #64, .F. ) ;
#139 = APPROVAL_DATE_TIME ( #75, #129 ) ;
#140 = APPROVAL_STATUS ( 'not_yet_approved' ) ;
#141 = APPROVAL_ROLE ( '' ) ;
#142 =( NAMED_UNIT ( * ) SI_UNIT ( $, .STERADIAN. ) SOLID_ANGLE_UNIT ( ) );
#143 = PERSON_AND_ORGANIZATION ( #68, #63 ) ;
#144 = CC_DESIGN_PERSON_AND_ORGANIZATION_ASSIGNMENT ( #164, #58, ( #73 ) ) ;
#145 = LOCAL_TIME ( 9, 10, 45.00000000000000000, #66 ) ;
#146 = CYLINDRICAL_SURFACE ( 'NONE', #38, 25.00000000000000000 ) ;
#147 = DIRECTION ( 'NONE',  ( 1.000000000000000000, 0.0000000000000000000, 0.0000000000000000000 ) ) ;
#148 = CARTESIAN_POINT ( 'NONE',  ( 0.0000000000000000000, 0.0000000000000000000, 0.0000000000000000000 ) ) ;
#149 = APPROVAL ( #140, 'UNSPECIFIED' ) ;
#150 = PLANE ( 'NONE',  #126 ) ;
#151 = VECTOR ( 'NONE', #136, 1000.000000000000000 ) ;
#152 = PERSON_AND_ORGANIZATION_ROLE ( 'design_supplier' ) ;
#153 = CC_DESIGN_APPROVAL ( #129, ( #73 ) ) ;
#154 = SHAPE_DEFINITION_REPRESENTATION ( #79, #83 ) ;
#155 =( GEOMETRIC_REPRESENTATION_CONTEXT ( 3 ) GLOBAL_UNCERTAINTY_ASSIGNED_CONTEXT ( ( #40 ) ) GLOBAL_UNIT_ASSIGNED_CONTEXT ( ( #125, #71, #142 ) ) REPRESENTATION_CONTEXT ( 'NONE', 'WORKASPACE' ) );
#156 = ADVANCED_FACE ( 'NONE', ( #169 ), #146, .T. ) ;
#157 = PERSON_AND_ORGANIZATION ( #68, #63 ) ;
#158 = CLOSED_SHELL ( 'NONE', ( #156, #112, #1, #174 ) ) ;
#159 = CC_DESIGN_PERSON_AND_ORGANIZATION_ASSIGNMENT ( #119, #152, ( #55 ) ) ;
#160 = CIRCLE ( 'NONE', #11, 25.00000000000000000 ) ;
#161 = DIRECTION ( 'NONE',  ( 0.0000000000000000000, 0.0000000000000000000, 1.000000000000000000 ) ) ;
#162 = DESIGN_CONTEXT ( 'detailed design', #31, 'design' ) ;
#163 = CC_DESIGN_APPROVAL ( #149, ( #24 ) ) ;
#164 = PERSON_AND_ORGANIZATION ( #68, #63 ) ;
#165 = ORIENTED_EDGE ( 'NONE', *, *, #23, .F. ) ;
#166 = CARTESIAN_POINT ( 'NONE',  ( -25.00000000000000000, 0.0000000000000000000, 0.0000000000000000000 ) ) ;
#167 = DIRECTION ( 'NONE',  ( 1.000000000000000000, 0.0000000000000000000, 0.0000000000000000000 ) ) ;
#168 = APPLICATION_CONTEXT ( 'configuration controlled 3d designs of mechanical parts and assemblies' ) ;
#169 = FACE_OUTER_BOUND ( 'NONE', #171, .T. ) ;
#170 = DATE_AND_TIME ( #65, #116 ) ;
#171 = EDGE_LOOP ( 'NONE', ( #165, #57, #37, #62 ) ) ;
#172 = AXIS2_PLACEMENT_3D ( 'NONE', #36, #105, #19 ) ;
#173 = CYLINDRICAL_SURFACE ( 'NONE', #99, 25.00000000000000000 ) ;
#174 = ADVANCED_FACE ( 'NONE', ( #93 ), #150, .F. ) ;
#175 = APPROVAL_DATE_TIME ( #41, #149 ) ;
ENDSEC;
END-ISO-10303-21;
