ISO-10303-21;
HEADER;
FILE_DESCRIPTION (( 'STEP AP203' ),
    '1' );
FILE_NAME ('Web Model 17225_17225.step',
    '2021-04-08T13:58:44',
    ( '' ),
    ( '' ),
    'SwSTEP 2.0',
    'SolidWorks 2018',
    '' );
FILE_SCHEMA (( 'CONFIG_CONTROL_DESIGN' ));
ENDSEC;

DATA;
#1 = CC_DESIGN_PERSON_AND_ORGANIZATION_ASSIGNMENT ( #169, #51, ( #122 ) ) ;
#2 = PRODUCT_DEFINITION_SHAPE ( 'NONE', 'NONE',  #29 ) ;
#3 = PERSON_AND_ORGANIZATION ( #14, #75 ) ;
#4 = AXIS2_PLACEMENT_3D ( 'NONE', #163, #103, #80 ) ;
#5 = FACE_OUTER_BOUND ( 'NONE', #23, .T. ) ;
#6 = PLANE ( 'NONE',  #172 ) ;
#7 = AXIS2_PLACEMENT_3D ( 'NONE', #66, #100, #21 ) ;
#8 = CALENDAR_DATE ( 2021, 8, 4 ) ;
#9 = EDGE_LOOP ( 'NONE', ( #85, #33 ) ) ;
#10 = PERSON_AND_ORGANIZATION_ROLE ( 'classification_officer' ) ;
#11 = CIRCLE ( 'NONE', #7, 7.500000000000000000 ) ;
#12 = APPROVAL_ROLE ( '' ) ;
#13 = COORDINATED_UNIVERSAL_TIME_OFFSET ( 5, 0, .BEHIND. ) ;
#14 = PERSON ( 'UNSPECIFIED', 'UNSPECIFIED', 'UNSPECIFIED', ('UNSPECIFIED'), ('UNSPECIFIED'), ('UNSPECIFIED') ) ;
#15 = AXIS2_PLACEMENT_3D ( 'NONE', #143, #115, #104 ) ;
#16 = EDGE_LOOP ( 'NONE', ( #87, #36 ) ) ;
#17 = EDGE_CURVE ( 'NONE', #47, #171, #55, .T. ) ;
#18 = DATE_AND_TIME ( #8, #61 ) ;
#19 = VERTEX_POINT ( 'NONE', #48 ) ;
#20 = ADVANCED_FACE ( 'NONE', ( #81 ), #117, .T. ) ;
#21 = DIRECTION ( 'NONE',  ( 1.000000000000000000, 0.000000000000000000, 0.000000000000000000 ) ) ;
#22 = AXIS2_PLACEMENT_3D ( 'NONE', #67, #53, #101 ) ;
#23 = EDGE_LOOP ( 'NONE', ( #99, #59, #147, #110 ) ) ;
#24 = APPLICATION_CONTEXT ( 'configuration controlled 3d designs of mechanical parts and assemblies' ) ;
#25 = APPROVAL_ROLE ( '' ) ;
#26 = CARTESIAN_POINT ( 'NONE',  ( 7.500000000000000000, 9.184850993605147944E-16, 0.000000000000000000 ) ) ;
#27 = APPROVAL_ROLE ( '' ) ;
#28 = APPROVAL_DATE_TIME ( #18, #43 ) ;
#29 = PRODUCT_DEFINITION ( 'UNKNOWN', '', #122, #79 ) ;
#30 = DATE_AND_TIME ( #167, #71 ) ;
#31 = CC_DESIGN_APPROVAL ( #164, ( #122 ) ) ;
#32 = COORDINATED_UNIVERSAL_TIME_OFFSET ( 5, 0, .BEHIND. ) ;
#33 = ORIENTED_EDGE ( 'NONE', *, *, #46, .T. ) ;
#34 = CC_DESIGN_PERSON_AND_ORGANIZATION_ASSIGNMENT ( #135, #10, ( #108 ) ) ;
#35 = PERSON_AND_ORGANIZATION ( #14, #75 ) ;
#36 = ORIENTED_EDGE ( 'NONE', *, *, #160, .F. ) ;
#37 =( LENGTH_UNIT ( ) NAMED_UNIT ( * ) SI_UNIT ( .MILLI., .METRE. ) );
#38 = APPROVAL_STATUS ( 'not_yet_approved' ) ;
#39 = CARTESIAN_POINT ( 'NONE',  ( -7.500000000000000000, 0.000000000000000000, 0.000000000000000000 ) ) ;
#40 = LOCAL_TIME ( 9, 58, 44.00000000000000000, #151 ) ;
#41 = CARTESIAN_POINT ( 'NONE',  ( 0.000000000000000000, 0.000000000000000000, 0.000000000000000000 ) ) ;
#42 = CYLINDRICAL_SURFACE ( 'NONE', #72, 7.500000000000000000 ) ;
#43 = APPROVAL ( #116, 'UNSPECIFIED' ) ;
#44 = CC_DESIGN_PERSON_AND_ORGANIZATION_ASSIGNMENT ( #3, #120, ( #122 ) ) ;
#45 = PERSON_AND_ORGANIZATION ( #14, #75 ) ;
#46 = EDGE_CURVE ( 'NONE', #19, #47, #159, .T. ) ;
#47 = VERTEX_POINT ( 'NONE', #64 ) ;
#48 = CARTESIAN_POINT ( 'NONE',  ( 7.500000000000000000, 9.184850993605147944E-16, 0.5000000000000000000 ) ) ;
#49 = DIRECTION ( 'NONE',  ( -1.000000000000000000, 0.000000000000000000, 0.000000000000000000 ) ) ;
#50 = AXIS2_PLACEMENT_3D ( 'NONE', #157, #127, #138 ) ;
#51 = PERSON_AND_ORGANIZATION_ROLE ( 'creator' ) ;
#52 = ORIENTED_EDGE ( 'NONE', *, *, #96, .F. ) ;
#53 = DIRECTION ( 'NONE',  ( 0.000000000000000000, 0.000000000000000000, 1.000000000000000000 ) ) ;
#54 = APPROVAL_DATE_TIME ( #136, #119 ) ;
#55 = LINE ( 'NONE', #74, #154 ) ;
#56 = CLOSED_SHELL ( 'NONE', ( #63, #20, #76, #170 ) ) ;
#57 = APPROVAL_PERSON_ORGANIZATION ( #45, #43, #12 ) ;
#58 = APPROVAL_DATE_TIME ( #84, #164 ) ;
#59 = ORIENTED_EDGE ( 'NONE', *, *, #93, .T. ) ;
#60 = CC_DESIGN_APPROVAL ( #43, ( #29 ) ) ;
#61 = LOCAL_TIME ( 9, 58, 44.00000000000000000, #13 ) ;
#62 = CARTESIAN_POINT ( 'NONE',  ( 0.000000000000000000, 0.000000000000000000, 0.5000000000000000000 ) ) ;
#63 = ADVANCED_FACE ( 'NONE', ( #5 ), #42, .T. ) ;
#64 = CARTESIAN_POINT ( 'NONE',  ( -7.500000000000000000, 0.000000000000000000, 0.5000000000000000000 ) ) ;
#65 = SECURITY_CLASSIFICATION_LEVEL ( 'unclassified' ) ;
#66 = CARTESIAN_POINT ( 'NONE',  ( 0.000000000000000000, 0.000000000000000000, 0.000000000000000000 ) ) ;
#67 = CARTESIAN_POINT ( 'NONE',  ( 0.000000000000000000, 0.000000000000000000, 0.000000000000000000 ) ) ;
#68 = PERSON_AND_ORGANIZATION ( #14, #75 ) ;
#69 = EDGE_LOOP ( 'NONE', ( #125, #52, #144, #114 ) ) ;
#70 = UNCERTAINTY_MEASURE_WITH_UNIT (LENGTH_MEASURE( 1.000000000000000082E-05 ), #37, 'distance_accuracy_value', 'NONE');
#71 = LOCAL_TIME ( 9, 58, 44.00000000000000000, #106 ) ;
#72 = AXIS2_PLACEMENT_3D ( 'NONE', #156, #86, #49 ) ;
#73 = CALENDAR_DATE ( 2021, 8, 4 ) ;
#74 = CARTESIAN_POINT ( 'NONE',  ( -7.500000000000000000, 0.000000000000000000, 0.5000000000000000000 ) ) ;
#75 = ORGANIZATION ( 'UNSPECIFIED', 'UNSPECIFIED', '' ) ;
#76 = ADVANCED_FACE ( 'NONE', ( #121 ), #6, .T. ) ;
#77 = DIRECTION ( 'NONE',  ( 0.000000000000000000, 0.000000000000000000, 1.000000000000000000 ) ) ;
#78 = ADVANCED_BREP_SHAPE_REPRESENTATION ( 'Web Model 17225_17225', ( #150, #22 ), #148 ) ;
#79 = DESIGN_CONTEXT ( 'detailed design', #24, 'design' ) ;
#80 = DIRECTION ( 'NONE',  ( 1.000000000000000000, 0.000000000000000000, 0.000000000000000000 ) ) ;
#81 = FACE_OUTER_BOUND ( 'NONE', #69, .T. ) ;
#82 = CC_DESIGN_SECURITY_CLASSIFICATION ( #108, ( #122 ) ) ;
#83 = FACE_OUTER_BOUND ( 'NONE', #16, .T. ) ;
#84 = DATE_AND_TIME ( #73, #123 ) ;
#85 = ORIENTED_EDGE ( 'NONE', *, *, #96, .T. ) ;
#86 = DIRECTION ( 'NONE',  ( -0.000000000000000000, -0.000000000000000000, -1.000000000000000000 ) ) ;
#87 = ORIENTED_EDGE ( 'NONE', *, *, #102, .F. ) ;
#88 = PERSON_AND_ORGANIZATION_ROLE ( 'creator' ) ;
#89 = DIRECTION ( 'NONE',  ( -0.000000000000000000, -0.000000000000000000, -1.000000000000000000 ) ) ;
#90 = PRODUCT_RELATED_PRODUCT_CATEGORY ( 'detail', '', ( #165 ) ) ;
#91 = APPLICATION_PROTOCOL_DEFINITION ( 'international standard', 'config_control_design', 1994, #24 ) ;
#92 = VECTOR ( 'NONE', #89, 1000.000000000000000 ) ;
#93 = EDGE_CURVE ( 'NONE', #19, #134, #155, .T. ) ;
#94 = PERSON_AND_ORGANIZATION ( #14, #75 ) ;
#95 = CARTESIAN_POINT ( 'NONE',  ( 0.000000000000000000, 0.000000000000000000, 0.5000000000000000000 ) ) ;
#96 = EDGE_CURVE ( 'NONE', #47, #19, #149, .T. ) ;
#97 = DIRECTION ( 'NONE',  ( 0.000000000000000000, 0.000000000000000000, 1.000000000000000000 ) ) ;
#98 = LOCAL_TIME ( 9, 58, 44.00000000000000000, #132 ) ;
#99 = ORIENTED_EDGE ( 'NONE', *, *, #46, .F. ) ;
#100 = DIRECTION ( 'NONE',  ( 0.000000000000000000, 0.000000000000000000, 1.000000000000000000 ) ) ;
#101 = DIRECTION ( 'NONE',  ( 1.000000000000000000, 0.000000000000000000, 0.000000000000000000 ) ) ;
#102 = EDGE_CURVE ( 'NONE', #171, #134, #11, .T. ) ;
#103 = DIRECTION ( 'NONE',  ( 0.000000000000000000, 0.000000000000000000, 1.000000000000000000 ) ) ;
#104 = DIRECTION ( 'NONE',  ( 1.000000000000000000, 0.000000000000000000, 0.000000000000000000 ) ) ;
#105 = DATE_TIME_ROLE ( 'creation_date' ) ;
#106 = COORDINATED_UNIVERSAL_TIME_OFFSET ( 5, 0, .BEHIND. ) ;
#107 = SHAPE_DEFINITION_REPRESENTATION ( #2, #78 ) ;
#108 = SECURITY_CLASSIFICATION ( '', '', #65 ) ;
#109 = APPROVAL_PERSON_ORGANIZATION ( #112, #164, #27 ) ;
#110 = ORIENTED_EDGE ( 'NONE', *, *, #17, .F. ) ;
#111 = CC_DESIGN_DATE_AND_TIME_ASSIGNMENT ( #146, #105, ( #29 ) ) ;
#112 = PERSON_AND_ORGANIZATION ( #14, #75 ) ;
#113 = DIRECTION ( 'NONE',  ( -0.000000000000000000, -0.000000000000000000, -1.000000000000000000 ) ) ;
#114 = ORIENTED_EDGE ( 'NONE', *, *, #102, .T. ) ;
#115 = DIRECTION ( 'NONE',  ( 0.000000000000000000, 0.000000000000000000, 1.000000000000000000 ) ) ;
#116 = APPROVAL_STATUS ( 'not_yet_approved' ) ;
#117 = CYLINDRICAL_SURFACE ( 'NONE', #50, 7.500000000000000000 ) ;
#118 = DIRECTION ( 'NONE',  ( 1.000000000000000000, 0.000000000000000000, -0.000000000000000000 ) ) ;
#119 = APPROVAL ( #158, 'UNSPECIFIED' ) ;
#120 = PERSON_AND_ORGANIZATION_ROLE ( 'design_supplier' ) ;
#121 = FACE_OUTER_BOUND ( 'NONE', #9, .T. ) ;
#122 = PRODUCT_DEFINITION_FORMATION_WITH_SPECIFIED_SOURCE ( 'ANY', '', #165, .NOT_KNOWN. ) ;
#123 = LOCAL_TIME ( 9, 58, 44.00000000000000000, #32 ) ;
#124 = CALENDAR_DATE ( 2021, 8, 4 ) ;
#125 = ORIENTED_EDGE ( 'NONE', *, *, #93, .F. ) ;
#126 = APPROVAL_PERSON_ORGANIZATION ( #35, #119, #25 ) ;
#127 = DIRECTION ( 'NONE',  ( -0.000000000000000000, -0.000000000000000000, -1.000000000000000000 ) ) ;
#128 = DIRECTION ( 'NONE',  ( 1.000000000000000000, 0.000000000000000000, 0.000000000000000000 ) ) ;
#129 = APPLICATION_PROTOCOL_DEFINITION ( 'international standard', 'config_control_design', 1994, #174 ) ;
#130 = CARTESIAN_POINT ( 'NONE',  ( 7.500000000000000000, 9.184850993605147944E-16, 0.5000000000000000000 ) ) ;
#131 =( NAMED_UNIT ( * ) SI_UNIT ( $, .STERADIAN. ) SOLID_ANGLE_UNIT ( ) );
#132 = COORDINATED_UNIVERSAL_TIME_OFFSET ( 5, 0, .BEHIND. ) ;
#133 = CC_DESIGN_PERSON_AND_ORGANIZATION_ASSIGNMENT ( #94, #175, ( #165 ) ) ;
#134 = VERTEX_POINT ( 'NONE', #26 ) ;
#135 = PERSON_AND_ORGANIZATION ( #14, #75 ) ;
#136 = DATE_AND_TIME ( #124, #98 ) ;
#137 = AXIS2_PLACEMENT_3D ( 'NONE', #41, #77, #161 ) ;
#138 = DIRECTION ( 'NONE',  ( -1.000000000000000000, 0.000000000000000000, 0.000000000000000000 ) ) ;
#139 = CALENDAR_DATE ( 2021, 8, 4 ) ;
#140 = CC_DESIGN_APPROVAL ( #119, ( #108 ) ) ;
#141 = DATE_TIME_ROLE ( 'classification_date' ) ;
#142 = DIRECTION ( 'NONE',  ( 0.000000000000000000, 0.000000000000000000, 1.000000000000000000 ) ) ;
#143 = CARTESIAN_POINT ( 'NONE',  ( 0.000000000000000000, 0.000000000000000000, 0.000000000000000000 ) ) ;
#144 = ORIENTED_EDGE ( 'NONE', *, *, #17, .T. ) ;
#145 = PLANE ( 'NONE',  #137 ) ;
#146 = DATE_AND_TIME ( #139, #40 ) ;
#147 = ORIENTED_EDGE ( 'NONE', *, *, #160, .T. ) ;
#148 =( GEOMETRIC_REPRESENTATION_CONTEXT ( 3 ) GLOBAL_UNCERTAINTY_ASSIGNED_CONTEXT ( ( #70 ) ) GLOBAL_UNIT_ASSIGNED_CONTEXT ( ( #37, #173, #131 ) ) REPRESENTATION_CONTEXT ( 'NONE', 'WORKASPACE' ) );
#149 = CIRCLE ( 'NONE', #4, 7.500000000000000000 ) ;
#150 = MANIFOLD_SOLID_BREP ( 'Boss-Extrude1', #56 ) ;
#151 = COORDINATED_UNIVERSAL_TIME_OFFSET ( 5, 0, .BEHIND. ) ;
#152 = CIRCLE ( 'NONE', #15, 7.500000000000000000 ) ;
#153 = CC_DESIGN_PERSON_AND_ORGANIZATION_ASSIGNMENT ( #68, #88, ( #29 ) ) ;
#154 = VECTOR ( 'NONE', #113, 1000.000000000000000 ) ;
#155 = LINE ( 'NONE', #130, #92 ) ;
#156 = CARTESIAN_POINT ( 'NONE',  ( 0.000000000000000000, 0.000000000000000000, 0.5000000000000000000 ) ) ;
#157 = CARTESIAN_POINT ( 'NONE',  ( 0.000000000000000000, 0.000000000000000000, 0.5000000000000000000 ) ) ;
#158 = APPROVAL_STATUS ( 'not_yet_approved' ) ;
#159 = CIRCLE ( 'NONE', #168, 7.500000000000000000 ) ;
#160 = EDGE_CURVE ( 'NONE', #134, #171, #152, .T. ) ;
#161 = DIRECTION ( 'NONE',  ( 1.000000000000000000, 0.000000000000000000, -0.000000000000000000 ) ) ;
#162 = MECHANICAL_CONTEXT ( 'NONE', #174, 'mechanical' ) ;
#163 = CARTESIAN_POINT ( 'NONE',  ( 0.000000000000000000, 0.000000000000000000, 0.5000000000000000000 ) ) ;
#164 = APPROVAL ( #38, 'UNSPECIFIED' ) ;
#165 = PRODUCT ( 'Web Model 17225_17225', 'Web Model 17225_17225', '', ( #162 ) ) ;
#166 = CC_DESIGN_DATE_AND_TIME_ASSIGNMENT ( #30, #141, ( #108 ) ) ;
#167 = CALENDAR_DATE ( 2021, 8, 4 ) ;
#168 = AXIS2_PLACEMENT_3D ( 'NONE', #62, #97, #128 ) ;
#169 = PERSON_AND_ORGANIZATION ( #14, #75 ) ;
#170 = ADVANCED_FACE ( 'NONE', ( #83 ), #145, .F. ) ;
#171 = VERTEX_POINT ( 'NONE', #39 ) ;
#172 = AXIS2_PLACEMENT_3D ( 'NONE', #95, #142, #118 ) ;
#173 =( NAMED_UNIT ( * ) PLANE_ANGLE_UNIT ( ) SI_UNIT ( $, .RADIAN. ) );
#174 = APPLICATION_CONTEXT ( 'configuration controlled 3d designs of mechanical parts and assemblies' ) ;
#175 = PERSON_AND_ORGANIZATION_ROLE ( 'design_owner' ) ;
ENDSEC;
END-ISO-10303-21;
