ISO-10303-21;
HEADER;
FILE_DESCRIPTION (( 'STEP AP203' ),
    '1' );
FILE_NAME ('Web Model 49003.STEP',
    '2017-02-01T19:13:03',
    ( '' ),
    ( '' ),
    'SwSTEP 2.0',
    'SolidWorks 2016',
    '' );
FILE_SCHEMA (( 'CONFIG_CONTROL_DESIGN' ));
ENDSEC;

DATA;
#1 = DIRECTION ( 'NONE',  ( -0.0000000000000000000, -0.0000000000000000000, -1.000000000000000000 ) ) ;
#2 = VERTEX_POINT ( 'NONE', #157 ) ;
#3 = FACE_OUTER_BOUND ( 'NONE', #252, .T. ) ;
#4 = AXIS2_PLACEMENT_3D ( 'NONE', #216, #220, #114 ) ;
#5 = VERTEX_POINT ( 'NONE', #49 ) ;
#6 = ADVANCED_FACE ( 'NONE', ( #24 ), #229, .T. ) ;
#7 = DIRECTION ( 'NONE',  ( 0.0000000000000000000, 0.0000000000000000000, -1.000000000000000000 ) ) ;
#8 = VERTEX_POINT ( 'NONE', #104 ) ;
#9 = LINE ( 'NONE', #286, #206 ) ;
#10 = PLANE ( 'NONE',  #106 ) ;
#11 = ORIENTED_EDGE ( 'NONE', *, *, #304, .T. ) ;
#12 = DIRECTION ( 'NONE',  ( 0.7071067811865512400, 0.7071067811865439100, -1.570092458683767300E-016 ) ) ;
#13 = CC_DESIGN_DATE_AND_TIME_ASSIGNMENT ( #199, #42, ( #275 ) ) ;
#14 = CARTESIAN_POINT ( 'NONE',  ( -9.530986006394562700E-016, -8.838834764831796400, -6.249999999999998200 ) ) ;
#15 = CARTESIAN_POINT ( 'NONE',  ( -8.838834764831888800, 1.253527758912113200E-015, -6.250000000000000000 ) ) ;
#16 = EDGE_LOOP ( 'NONE', ( #321, #55, #100, #120 ) ) ;
#17 = DIRECTION ( 'NONE',  ( 0.0000000000000000000, 0.0000000000000000000, 1.000000000000000000 ) ) ;
#18 = SHAPE_DEFINITION_REPRESENTATION ( #134, #187 ) ;
#19 = APPLICATION_CONTEXT ( 'configuration controlled 3d designs of mechanical parts and assemblies' ) ;
#20 = DIRECTION ( 'NONE',  ( -1.000000000000000000, 7.091023829858611500E-017, -1.574523584814938100E-032 ) ) ;
#21 = VECTOR ( 'NONE', #64, 1000.000000000000000 ) ;
#22 = ORGANIZATION ( 'UNSPECIFIED', 'UNSPECIFIED', '' ) ;
#23 = EDGE_LOOP ( 'NONE', ( #92, #256, #121, #11 ) ) ;
#24 = FACE_OUTER_BOUND ( 'NONE', #166, .T. ) ;
#25 = ORIENTED_EDGE ( 'NONE', *, *, #81, .T. ) ;
#26 = LOCAL_TIME ( 14, 13, 3.000000000000000000, #94 ) ;
#27 = CARTESIAN_POINT ( 'NONE',  ( -8.838834764831888800, 1.253527758912113200E-015, 6.250000000000000000 ) ) ;
#28 = CARTESIAN_POINT ( 'NONE',  ( -8.838834764831888800, 1.253527758912113200E-015, -6.250000000000000000 ) ) ;
#29 = ORIENTED_EDGE ( 'NONE', *, *, #147, .F. ) ;
#30 = VECTOR ( 'NONE', #41, 1000.000000000000000 ) ;
#31 = VERTEX_POINT ( 'NONE', #227 ) ;
#32 = CARTESIAN_POINT ( 'NONE',  ( 9.530986006394562700E-016, 8.838834764831796400, -6.250000000000000000 ) ) ;
#33 = ADVANCED_FACE ( 'NONE', ( #149 ), #204, .F. ) ;
#34 = DIRECTION ( 'NONE',  ( 0.0000000000000000000, 0.0000000000000000000, 1.000000000000000000 ) ) ;
#35 = VECTOR ( 'NONE', #154, 999.9999999999998900 ) ;
#36 = ADVANCED_FACE ( 'NONE', ( #315 ), #277, .T. ) ;
#37 = PERSON_AND_ORGANIZATION ( #113, #22 ) ;
#38 = CARTESIAN_POINT ( 'NONE',  ( -9.530986006394562700E-016, -8.838834764831796400, 6.250000000000001800 ) ) ;
#39 = CARTESIAN_POINT ( 'NONE',  ( 0.0000000000000000000, 0.0000000000000000000, -6.250000000000000000 ) ) ;
#40 = ORIENTED_EDGE ( 'NONE', *, *, #304, .F. ) ;
#41 = DIRECTION ( 'NONE',  ( -0.0000000000000000000, -0.0000000000000000000, -1.000000000000000000 ) ) ;
#42 = DATE_TIME_ROLE ( 'creation_date' ) ;
#43 = EDGE_CURVE ( 'NONE', #163, #237, #219, .T. ) ;
#44 = APPROVAL_ROLE ( '' ) ;
#45 = MECHANICAL_CONTEXT ( 'NONE', #317, 'mechanical' ) ;
#46 = EDGE_LOOP ( 'NONE', ( #105, #40, #29, #184 ) ) ;
#47 = VECTOR ( 'NONE', #7, 1000.000000000000000 ) ;
#48 = VERTEX_POINT ( 'NONE', #186 ) ;
#49 = CARTESIAN_POINT ( 'NONE',  ( 8.838834764831888800, -1.253527758912113200E-015, 6.250000000000000000 ) ) ;
#50 = ORIENTED_EDGE ( 'NONE', *, *, #312, .F. ) ;
#51 = VECTOR ( 'NONE', #150, 1000.000000000000000 ) ;
#52 = DIRECTION ( 'NONE',  ( -0.7071067811865512400, -0.7071067811865439100, 0.0000000000000000000 ) ) ;
#53 = MANIFOLD_SOLID_BREP ( '12.5x12.5 Right Angle Prism Master-1-solid1', #101 ) ;
#54 = DIRECTION ( 'NONE',  ( 0.7071067811865511300, -0.7071067811865440200, 1.570092458683767500E-016 ) ) ;
#55 = ORIENTED_EDGE ( 'NONE', *, *, #203, .F. ) ;
#56 = CC_DESIGN_APPROVAL ( #225, ( #309 ) ) ;
#57 = VECTOR ( 'NONE', #52, 999.9999999999998900 ) ;
#58 = DIRECTION ( 'NONE',  ( 0.0000000000000000000, 0.0000000000000000000, 1.000000000000000000 ) ) ;
#59 = EDGE_CURVE ( 'NONE', #156, #2, #67, .T. ) ;
#60 = VECTOR ( 'NONE', #20, 1000.000000000000000 ) ;
#61 = FACE_OUTER_BOUND ( 'NONE', #46, .T. ) ;
#62 = LINE ( 'NONE', #217, #272 ) ;
#63 = DIRECTION ( 'NONE',  ( -0.7071067811865511300, 0.7071067811865440200, 0.0000000000000000000 ) ) ;
#64 = DIRECTION ( 'NONE',  ( 1.000000000000000000, -7.091023829858611500E-017, 0.0000000000000000000 ) ) ;
#65 = EDGE_CURVE ( 'NONE', #5, #110, #162, .T. ) ;
#66 = CARTESIAN_POINT ( 'NONE',  ( -8.838834764831888800, 0.0000000000000000000, -6.250000000000000000 ) ) ;
#67 = LINE ( 'NONE', #78, #35 ) ;
#68 = CARTESIAN_POINT ( 'NONE',  ( 8.838834764831888800, 0.0000000000000000000, 6.250000000000000000 ) ) ;
#69 = CALENDAR_DATE ( 2017, 1, 2 ) ;
#70 = LOCAL_TIME ( 14, 13, 3.000000000000000000, #185 ) ;
#71 = DATE_TIME_ROLE ( 'classification_date' ) ;
#72 = EDGE_LOOP ( 'NONE', ( #198, #196, #50, #209 ) ) ;
#73 = VECTOR ( 'NONE', #54, 1000.000000000000000 ) ;
#74 = EDGE_CURVE ( 'NONE', #152, #31, #293, .T. ) ;
#75 = VECTOR ( 'NONE', #12, 999.9999999999998900 ) ;
#76 = CARTESIAN_POINT ( 'NONE',  ( -9.530986006394562700E-016, -8.838834764831796400, 6.250000000000001800 ) ) ;
#77 = AXIS2_PLACEMENT_3D ( 'NONE', #76, #249, #102 ) ;
#78 = CARTESIAN_POINT ( 'NONE',  ( 9.530986006394562700E-016, 8.838834764831796400, 6.250000000000000000 ) ) ;
#79 =( GEOMETRIC_REPRESENTATION_CONTEXT ( 3 ) GLOBAL_UNCERTAINTY_ASSIGNED_CONTEXT ( ( #155 ) ) GLOBAL_UNIT_ASSIGNED_CONTEXT ( ( #292, #267, #174 ) ) REPRESENTATION_CONTEXT ( 'NONE', 'WORKASPACE' ) );
#80 = DATE_AND_TIME ( #179, #70 ) ;
#81 = EDGE_CURVE ( 'NONE', #270, #8, #235, .T. ) ;
#82 = PRODUCT ( 'Web Model 49003', 'Web Model 49003', '', ( #45 ) ) ;
#83 = DATE_AND_TIME ( #248, #103 ) ;
#84 = ORIENTED_EDGE ( 'NONE', *, *, #310, .F. ) ;
#85 = LINE ( 'NONE', #311, #47 ) ;
#86 = DIRECTION ( 'NONE',  ( 1.000000000000000000, -7.091023829858611500E-017, 0.0000000000000000000 ) ) ;
#87 = LINE ( 'NONE', #66, #21 ) ;
#88 = DIRECTION ( 'NONE',  ( 0.7071067811865439100, -0.7071067811865512400, 0.0000000000000000000 ) ) ;
#89 = CARTESIAN_POINT ( 'NONE',  ( 9.530986006394562700E-016, 8.838834764831796400, -6.250000000000000000 ) ) ;
#90 = PLANE ( 'NONE',  #182 ) ;
#91 = ORIENTED_EDGE ( 'NONE', *, *, #240, .T. ) ;
#92 = ORIENTED_EDGE ( 'NONE', *, *, #74, .T. ) ;
#93 = CC_DESIGN_PERSON_AND_ORGANIZATION_ASSIGNMENT ( #37, #295, ( #309 ) ) ;
#94 = COORDINATED_UNIVERSAL_TIME_OFFSET ( 5, 0, .BEHIND. ) ;
#95 = APPROVAL ( #223, 'UNSPECIFIED' ) ;
#96 = EDGE_CURVE ( 'NONE', #163, #270, #268, .T. ) ;
#97 = CARTESIAN_POINT ( 'NONE',  ( 0.0000000000000000000, 0.0000000000000000000, 0.0000000000000000000 ) ) ;
#98 = APPROVAL_ROLE ( '' ) ;
#99 = PRODUCT_DEFINITION_FORMATION_WITH_SPECIFIED_SOURCE ( 'ANY', '', #82, .NOT_KNOWN. ) ;
#100 = ORIENTED_EDGE ( 'NONE', *, *, #153, .F. ) ;
#101 = CLOSED_SHELL ( 'NONE', ( #167, #211, #214, #36, #308 ) ) ;
#102 = DIRECTION ( 'NONE',  ( -0.7071067811865512400, -0.7071067811865439100, 1.570092458683767300E-016 ) ) ;
#103 = LOCAL_TIME ( 14, 13, 3.000000000000000000, #176 ) ;
#104 = CARTESIAN_POINT ( 'NONE',  ( -9.530986006394562700E-016, -8.838834764831796400, -6.249999999999998200 ) ) ;
#105 = ORIENTED_EDGE ( 'NONE', *, *, #159, .T. ) ;
#106 = AXIS2_PLACEMENT_3D ( 'NONE', #278, #140, #148 ) ;
#107 = DESIGN_CONTEXT ( 'detailed design', #19, 'design' ) ;
#108 = APPROVAL_DATE_TIME ( #133, #225 ) ;
#109 = ADVANCED_FACE ( 'NONE', ( #3 ), #251, .F. ) ;
#110 = VERTEX_POINT ( 'NONE', #236 ) ;
#111 = DIRECTION ( 'NONE',  ( 0.7071067811865512400, 0.7071067811865439100, -1.570092458683767300E-016 ) ) ;
#112 = CLOSED_SHELL ( 'NONE', ( #109, #33, #141, #6, #212 ) ) ;
#113 = PERSON ( 'UNSPECIFIED', 'UNSPECIFIED', 'UNSPECIFIED', ('UNSPECIFIED'), ('UNSPECIFIED'), ('UNSPECIFIED') ) ;
#114 = DIRECTION ( 'NONE',  ( -1.000000000000000000, 7.091023829858611500E-017, 0.0000000000000000000 ) ) ;
#115 = ORIENTED_EDGE ( 'NONE', *, *, #43, .F. ) ;
#116 = CARTESIAN_POINT ( 'NONE',  ( -8.838834764831888800, 0.0000000000000000000, 6.250000000000000000 ) ) ;
#117 = EDGE_CURVE ( 'NONE', #31, #110, #87, .T. ) ;
#118 = DIRECTION ( 'NONE',  ( -0.0000000000000000000, -0.0000000000000000000, -1.000000000000000000 ) ) ;
#119 = CARTESIAN_POINT ( 'NONE',  ( 8.838834764831888800, 0.0000000000000000000, 6.250000000000000000 ) ) ;
#120 = ORIENTED_EDGE ( 'NONE', *, *, #285, .T. ) ;
#121 = ORIENTED_EDGE ( 'NONE', *, *, #59, .F. ) ;
#122 = AXIS2_PLACEMENT_3D ( 'NONE', #243, #287, #123 ) ;
#123 = DIRECTION ( 'NONE',  ( 1.000000000000000000, 0.0000000000000000000, -0.0000000000000000000 ) ) ;
#124 = EDGE_LOOP ( 'NONE', ( #296, #180, #314, #131 ) ) ;
#125 = FACE_OUTER_BOUND ( 'NONE', #306, .T. ) ;
#126 = FACE_OUTER_BOUND ( 'NONE', #124, .T. ) ;
#127 = AXIS2_PLACEMENT_3D ( 'NONE', #210, #58, #307 ) ;
#128 = CALENDAR_DATE ( 2017, 1, 2 ) ;
#129 = PERSON_AND_ORGANIZATION ( #113, #22 ) ;
#130 = VECTOR ( 'NONE', #86, 1000.000000000000000 ) ;
#131 = ORIENTED_EDGE ( 'NONE', *, *, #254, .T. ) ;
#132 = LINE ( 'NONE', #189, #202 ) ;
#133 = DATE_AND_TIME ( #128, #253 ) ;
#134 = PRODUCT_DEFINITION_SHAPE ( 'NONE', 'NONE',  #275 ) ;
#135 = EDGE_LOOP ( 'NONE', ( #178, #84, #161 ) ) ;
#136 = DIRECTION ( 'NONE',  ( 0.7071067811865511300, -0.7071067811865440200, 1.570092458683767500E-016 ) ) ;
#137 = ORIENTED_EDGE ( 'NONE', *, *, #59, .T. ) ;
#138 = AXIS2_PLACEMENT_3D ( 'NONE', #97, #17, #194 ) ;
#139 = CARTESIAN_POINT ( 'NONE',  ( -8.838834764831888800, 1.253527758912113200E-015, 6.250000000000000000 ) ) ;
#140 = DIRECTION ( 'NONE',  ( -0.7071067811865440200, -0.7071067811865511300, 0.0000000000000000000 ) ) ;
#141 = ADVANCED_FACE ( 'NONE', ( #319 ), #313, .F. ) ;
#142 = DIRECTION ( 'NONE',  ( 1.000000000000000000, -7.091023829858611500E-017, 1.574523584814938100E-032 ) ) ;
#143 = CC_DESIGN_PERSON_AND_ORGANIZATION_ASSIGNMENT ( #191, #233, ( #99 ) ) ;
#144 = APPROVAL_PERSON_ORGANIZATION ( #129, #95, #44 ) ;
#145 = CARTESIAN_POINT ( 'NONE',  ( 9.530986006394562700E-016, 8.838834764831796400, 6.250000000000000000 ) ) ;
#146 = AXIS2_PLACEMENT_3D ( 'NONE', #139, #298, #192 ) ;
#147 = EDGE_CURVE ( 'NONE', #5, #156, #9, .T. ) ;
#148 = DIRECTION ( 'NONE',  ( 0.7071067811865511300, -0.7071067811865440200, 0.0000000000000000000 ) ) ;
#149 = FACE_OUTER_BOUND ( 'NONE', #16, .T. ) ;
#150 = DIRECTION ( 'NONE',  ( -1.000000000000000000, 7.091023829858611500E-017, -1.574523584814938100E-032 ) ) ;
#151 = ORIENTED_EDGE ( 'NONE', *, *, #74, .F. ) ;
#152 = VERTEX_POINT ( 'NONE', #89 ) ;
#153 = EDGE_CURVE ( 'NONE', #237, #299, #62, .T. ) ;
#154 = DIRECTION ( 'NONE',  ( -0.7071067811865512400, -0.7071067811865439100, 0.0000000000000000000 ) ) ;
#155 = UNCERTAINTY_MEASURE_WITH_UNIT (LENGTH_MEASURE( 1.000000000000000100E-005 ), #292, 'distance_accuracy_value', 'NONE');
#156 = VERTEX_POINT ( 'NONE', #262 ) ;
#157 = CARTESIAN_POINT ( 'NONE',  ( -8.838834764831888800, 0.0000000000000000000, 6.250000000000000000 ) ) ;
#158 = PERSON_AND_ORGANIZATION ( #113, #22 ) ;
#159 = EDGE_CURVE ( 'NONE', #110, #152, #132, .T. ) ;
#160 = CALENDAR_DATE ( 2017, 1, 2 ) ;
#161 = ORIENTED_EDGE ( 'NONE', *, *, #164, .F. ) ;
#162 = LINE ( 'NONE', #273, #265 ) ;
#163 = VERTEX_POINT ( 'NONE', #283 ) ;
#164 = EDGE_CURVE ( 'NONE', #8, #48, #215, .T. ) ;
#165 = ORIENTED_EDGE ( 'NONE', *, *, #96, .T. ) ;
#166 = EDGE_LOOP ( 'NONE', ( #244, #303, #190 ) ) ;
#167 = ADVANCED_FACE ( 'NONE', ( #61 ), #10, .F. ) ;
#168 = CARTESIAN_POINT ( 'NONE',  ( -9.530986006394562700E-016, -8.838834764831796400, 6.250000000000001800 ) ) ;
#169 = PLANE ( 'NONE',  #172 ) ;
#170 = CC_DESIGN_APPROVAL ( #95, ( #99 ) ) ;
#171 = PLANE ( 'NONE',  #4 ) ;
#172 = AXIS2_PLACEMENT_3D ( 'NONE', #188, #88, #261 ) ;
#173 = PERSON_AND_ORGANIZATION_ROLE ( 'design_owner' ) ;
#174 =( NAMED_UNIT ( * ) SI_UNIT ( $, .STERADIAN. ) SOLID_ANGLE_UNIT ( ) );
#175 = PLANE ( 'NONE',  #122 ) ;
#176 = COORDINATED_UNIVERSAL_TIME_OFFSET ( 5, 0, .BEHIND. ) ;
#177 = LINE ( 'NONE', #116, #130 ) ;
#178 = ORIENTED_EDGE ( 'NONE', *, *, #81, .F. ) ;
#179 = CALENDAR_DATE ( 2017, 1, 2 ) ;
#180 = ORIENTED_EDGE ( 'NONE', *, *, #65, .F. ) ;
#181 = CC_DESIGN_PERSON_AND_ORGANIZATION_ASSIGNMENT ( #158, #221, ( #99 ) ) ;
#182 = AXIS2_PLACEMENT_3D ( 'NONE', #39, #213, #263 ) ;
#183 = PERSON_AND_ORGANIZATION ( #113, #22 ) ;
#184 = ORIENTED_EDGE ( 'NONE', *, *, #65, .T. ) ;
#185 = COORDINATED_UNIVERSAL_TIME_OFFSET ( 5, 0, .BEHIND. ) ;
#186 = CARTESIAN_POINT ( 'NONE',  ( 8.838834764831888800, -0.0000000000000000000, -6.250000000000000000 ) ) ;
#187 = ADVANCED_BREP_SHAPE_REPRESENTATION ( 'Web Model 49003', ( #53, #289, #138 ), #79 ) ;
#188 = CARTESIAN_POINT ( 'NONE',  ( 9.530986006394562700E-016, 8.838834764831796400, 6.250000000000000000 ) ) ;
#189 = CARTESIAN_POINT ( 'NONE',  ( 8.838834764831888800, -1.253527758912113200E-015, -6.250000000000000000 ) ) ;
#190 = ORIENTED_EDGE ( 'NONE', *, *, #312, .T. ) ;
#191 = PERSON_AND_ORGANIZATION ( #113, #22 ) ;
#192 = DIRECTION ( 'NONE',  ( -0.7071067811865511300, 0.7071067811865440200, -1.570092458683767500E-016 ) ) ;
#193 = APPROVAL_DATE_TIME ( #208, #255 ) ;
#194 = DIRECTION ( 'NONE',  ( 1.000000000000000000, 0.0000000000000000000, 0.0000000000000000000 ) ) ;
#195 = PERSON_AND_ORGANIZATION_ROLE ( 'creator' ) ;
#196 = ORIENTED_EDGE ( 'NONE', *, *, #96, .F. ) ;
#197 = APPROVAL_STATUS ( 'not_yet_approved' ) ;
#198 = ORIENTED_EDGE ( 'NONE', *, *, #310, .T. ) ;
#199 = DATE_AND_TIME ( #69, #26 ) ;
#200 = ORIENTED_EDGE ( 'NONE', *, *, #285, .F. ) ;
#201 = APPROVAL_ROLE ( '' ) ;
#202 = VECTOR ( 'NONE', #241, 1000.000000000000000 ) ;
#203 = EDGE_CURVE ( 'NONE', #299, #48, #85, .T. ) ;
#204 = PLANE ( 'NONE',  #77 ) ;
#205 = ORIENTED_EDGE ( 'NONE', *, *, #117, .F. ) ;
#206 = VECTOR ( 'NONE', #63, 1000.000000000000000 ) ;
#207 = DIRECTION ( 'NONE',  ( -1.000000000000000000, 0.0000000000000000000, 0.0000000000000000000 ) ) ;
#208 = DATE_AND_TIME ( #160, #232 ) ;
#209 = ORIENTED_EDGE ( 'NONE', *, *, #203, .T. ) ;
#210 = CARTESIAN_POINT ( 'NONE',  ( 0.0000000000000000000, 0.0000000000000000000, 6.250000000000000000 ) ) ;
#211 = ADVANCED_FACE ( 'NONE', ( #274 ), #169, .F. ) ;
#212 = ADVANCED_FACE ( 'NONE', ( #222 ), #90, .F. ) ;
#213 = DIRECTION ( 'NONE',  ( 0.0000000000000000000, 0.0000000000000000000, 1.000000000000000000 ) ) ;
#214 = ADVANCED_FACE ( 'NONE', ( #126 ), #171, .F. ) ;
#215 = LINE ( 'NONE', #14, #75 ) ;
#216 = CARTESIAN_POINT ( 'NONE',  ( -8.838834764831888800, 0.0000000000000000000, 6.250000000000000000 ) ) ;
#217 = CARTESIAN_POINT ( 'NONE',  ( -9.530986006394562700E-016, -8.838834764831796400, 6.250000000000001800 ) ) ;
#218 = CC_DESIGN_DATE_AND_TIME_ASSIGNMENT ( #80, #71, ( #309 ) ) ;
#219 = LINE ( 'NONE', #27, #73 ) ;
#220 = DIRECTION ( 'NONE',  ( 7.091023829858611500E-017, 1.000000000000000000, -0.0000000000000000000 ) ) ;
#221 = PERSON_AND_ORGANIZATION_ROLE ( 'creator' ) ;
#222 = FACE_OUTER_BOUND ( 'NONE', #135, .T. ) ;
#223 = APPROVAL_STATUS ( 'not_yet_approved' ) ;
#224 = APPROVAL_DATE_TIME ( #83, #95 ) ;
#225 = APPROVAL ( #320, 'UNSPECIFIED' ) ;
#226 = SECURITY_CLASSIFICATION_LEVEL ( 'unclassified' ) ;
#227 = CARTESIAN_POINT ( 'NONE',  ( -8.838834764831888800, 0.0000000000000000000, -6.250000000000000000 ) ) ;
#228 = AXIS2_PLACEMENT_3D ( 'NONE', #301, #34, #207 ) ;
#229 = PLANE ( 'NONE',  #228 ) ;
#230 = COORDINATED_UNIVERSAL_TIME_OFFSET ( 5, 0, .BEHIND. ) ;
#231 = PERSON_AND_ORGANIZATION ( #113, #22 ) ;
#232 = LOCAL_TIME ( 14, 13, 3.000000000000000000, #291 ) ;
#233 = PERSON_AND_ORGANIZATION_ROLE ( 'design_supplier' ) ;
#234 = EDGE_LOOP ( 'NONE', ( #281, #137, #91 ) ) ;
#235 = LINE ( 'NONE', #28, #247 ) ;
#236 = CARTESIAN_POINT ( 'NONE',  ( 8.838834764831888800, -1.253527758912113200E-015, -6.250000000000000000 ) ) ;
#237 = VERTEX_POINT ( 'NONE', #38 ) ;
#238 = PRODUCT_RELATED_PRODUCT_CATEGORY ( 'detail', '', ( #82 ) ) ;
#239 = CARTESIAN_POINT ( 'NONE',  ( 8.838834764831888800, 0.0000000000000000000, 6.250000000000000000 ) ) ;
#240 = EDGE_CURVE ( 'NONE', #2, #5, #177, .T. ) ;
#241 = DIRECTION ( 'NONE',  ( -0.7071067811865511300, 0.7071067811865440200, 0.0000000000000000000 ) ) ;
#242 = APPLICATION_PROTOCOL_DEFINITION ( 'international standard', 'config_control_design', 1994, #317 ) ;
#243 = CARTESIAN_POINT ( 'NONE',  ( 0.0000000000000000000, 0.0000000000000000000, -6.250000000000000000 ) ) ;
#244 = ORIENTED_EDGE ( 'NONE', *, *, #43, .T. ) ;
#245 = CC_DESIGN_PERSON_AND_ORGANIZATION_ASSIGNMENT ( #276, #173, ( #82 ) ) ;
#246 = LINE ( 'NONE', #259, #30 ) ;
#247 = VECTOR ( 'NONE', #136, 1000.000000000000000 ) ;
#248 = CALENDAR_DATE ( 2017, 1, 2 ) ;
#249 = DIRECTION ( 'NONE',  ( -0.7071067811865439100, 0.7071067811865512400, -1.570092458683783300E-016 ) ) ;
#250 = LINE ( 'NONE', #68, #51 ) ;
#251 = PLANE ( 'NONE',  #146 ) ;
#252 = EDGE_LOOP ( 'NONE', ( #25, #200, #115, #165 ) ) ;
#253 = LOCAL_TIME ( 14, 13, 3.000000000000000000, #230 ) ;
#254 = EDGE_CURVE ( 'NONE', #2, #31, #246, .T. ) ;
#255 = APPROVAL ( #197, 'UNSPECIFIED' ) ;
#256 = ORIENTED_EDGE ( 'NONE', *, *, #254, .F. ) ;
#257 = CARTESIAN_POINT ( 'NONE',  ( -8.838834764831888800, 1.253527758912113200E-015, 6.250000000000000000 ) ) ;
#258 = DIRECTION ( 'NONE',  ( -7.091023829858611500E-017, -1.000000000000000000, 2.220446049250313600E-016 ) ) ;
#259 = CARTESIAN_POINT ( 'NONE',  ( -8.838834764831888800, 0.0000000000000000000, 6.250000000000000000 ) ) ;
#260 = VECTOR ( 'NONE', #302, 1000.000000000000000 ) ;
#261 = DIRECTION ( 'NONE',  ( 0.7071067811865512400, 0.7071067811865439100, 0.0000000000000000000 ) ) ;
#262 = CARTESIAN_POINT ( 'NONE',  ( 9.530986006394562700E-016, 8.838834764831796400, 6.250000000000000000 ) ) ;
#263 = DIRECTION ( 'NONE',  ( -1.000000000000000000, 0.0000000000000000000, 0.0000000000000000000 ) ) ;
#264 = CC_DESIGN_PERSON_AND_ORGANIZATION_ASSIGNMENT ( #183, #195, ( #275 ) ) ;
#265 = VECTOR ( 'NONE', #1, 1000.000000000000000 ) ;
#266 = APPLICATION_PROTOCOL_DEFINITION ( 'international standard', 'config_control_design', 1994, #19 ) ;
#267 =( NAMED_UNIT ( * ) PLANE_ANGLE_UNIT ( ) SI_UNIT ( $, .RADIAN. ) );
#268 = LINE ( 'NONE', #257, #260 ) ;
#269 = CC_DESIGN_SECURITY_CLASSIFICATION ( #309, ( #99 ) ) ;
#270 = VERTEX_POINT ( 'NONE', #15 ) ;
#271 = CC_DESIGN_APPROVAL ( #255, ( #275 ) ) ;
#272 = VECTOR ( 'NONE', #111, 999.9999999999998900 ) ;
#273 = CARTESIAN_POINT ( 'NONE',  ( 8.838834764831888800, -1.253527758912113200E-015, 6.250000000000000000 ) ) ;
#274 = FACE_OUTER_BOUND ( 'NONE', #23, .T. ) ;
#275 = PRODUCT_DEFINITION ( 'UNKNOWN', '', #99, #107 ) ;
#276 = PERSON_AND_ORGANIZATION ( #113, #22 ) ;
#277 = PLANE ( 'NONE',  #127 ) ;
#278 = CARTESIAN_POINT ( 'NONE',  ( 8.838834764831888800, -1.253527758912113200E-015, 6.250000000000000000 ) ) ;
#279 = ORIENTED_EDGE ( 'NONE', *, *, #159, .F. ) ;
#280 = PERSON_AND_ORGANIZATION ( #113, #22 ) ;
#281 = ORIENTED_EDGE ( 'NONE', *, *, #147, .T. ) ;
#282 = LINE ( 'NONE', #168, #297 ) ;
#283 = CARTESIAN_POINT ( 'NONE',  ( -8.838834764831888800, 1.253527758912113200E-015, 6.250000000000000000 ) ) ;
#284 = APPROVAL_PERSON_ORGANIZATION ( #231, #255, #98 ) ;
#285 = EDGE_CURVE ( 'NONE', #237, #8, #282, .T. ) ;
#286 = CARTESIAN_POINT ( 'NONE',  ( 8.838834764831888800, -1.253527758912113200E-015, 6.250000000000000000 ) ) ;
#287 = DIRECTION ( 'NONE',  ( 0.0000000000000000000, 0.0000000000000000000, 1.000000000000000000 ) ) ;
#288 = LINE ( 'NONE', #145, #318 ) ;
#289 = MANIFOLD_SOLID_BREP ( '12.5x12.5 Right Angle Prism Master-2-solid1', #112 ) ;
#290 = DIRECTION ( 'NONE',  ( 0.0000000000000000000, 0.0000000000000000000, -1.000000000000000000 ) ) ;
#291 = COORDINATED_UNIVERSAL_TIME_OFFSET ( 5, 0, .BEHIND. ) ;
#292 =( LENGTH_UNIT ( ) NAMED_UNIT ( * ) SI_UNIT ( .MILLI., .METRE. ) );
#293 = LINE ( 'NONE', #32, #57 ) ;
#294 = APPROVAL_PERSON_ORGANIZATION ( #280, #225, #201 ) ;
#295 = PERSON_AND_ORGANIZATION_ROLE ( 'classification_officer' ) ;
#296 = ORIENTED_EDGE ( 'NONE', *, *, #117, .T. ) ;
#297 = VECTOR ( 'NONE', #290, 1000.000000000000000 ) ;
#298 = DIRECTION ( 'NONE',  ( 0.7071067811865440200, 0.7071067811865511300, -1.570092458683783300E-016 ) ) ;
#299 = VERTEX_POINT ( 'NONE', #119 ) ;
#300 = AXIS2_PLACEMENT_3D ( 'NONE', #239, #258, #142 ) ;
#301 = CARTESIAN_POINT ( 'NONE',  ( 0.0000000000000000000, 0.0000000000000000000, 6.250000000000000000 ) ) ;
#302 = DIRECTION ( 'NONE',  ( 0.0000000000000000000, 0.0000000000000000000, -1.000000000000000000 ) ) ;
#303 = ORIENTED_EDGE ( 'NONE', *, *, #153, .T. ) ;
#304 = EDGE_CURVE ( 'NONE', #156, #152, #288, .T. ) ;
#305 = LINE ( 'NONE', #316, #60 ) ;
#306 = EDGE_LOOP ( 'NONE', ( #279, #205, #151 ) ) ;
#307 = DIRECTION ( 'NONE',  ( 1.000000000000000000, 0.0000000000000000000, -0.0000000000000000000 ) ) ;
#308 = ADVANCED_FACE ( 'NONE', ( #125 ), #175, .F. ) ;
#309 = SECURITY_CLASSIFICATION ( '', '', #226 ) ;
#310 = EDGE_CURVE ( 'NONE', #48, #270, #305, .T. ) ;
#311 = CARTESIAN_POINT ( 'NONE',  ( 8.838834764831888800, 0.0000000000000000000, 6.250000000000000000 ) ) ;
#312 = EDGE_CURVE ( 'NONE', #299, #163, #250, .T. ) ;
#313 = PLANE ( 'NONE',  #300 ) ;
#314 = ORIENTED_EDGE ( 'NONE', *, *, #240, .F. ) ;
#315 = FACE_OUTER_BOUND ( 'NONE', #234, .T. ) ;
#316 = CARTESIAN_POINT ( 'NONE',  ( 8.838834764831888800, -0.0000000000000000000, -6.250000000000000000 ) ) ;
#317 = APPLICATION_CONTEXT ( 'configuration controlled 3d designs of mechanical parts and assemblies' ) ;
#318 = VECTOR ( 'NONE', #118, 1000.000000000000000 ) ;
#319 = FACE_OUTER_BOUND ( 'NONE', #72, .T. ) ;
#320 = APPROVAL_STATUS ( 'not_yet_approved' ) ;
#321 = ORIENTED_EDGE ( 'NONE', *, *, #164, .T. ) ;
ENDSEC;
END-ISO-10303-21;
