ISO-10303-21;
HEADER;
FILE_DESCRIPTION (( 'STEP AP203' ),
    '1' );
FILE_NAME ('Web Model 14965_14991.step',
    '2021-06-14T15:17:15',
    ( '' ),
    ( '' ),
    'SwSTEP 2.0',
    'SolidWorks 2018',
    '' );
FILE_SCHEMA (( 'CONFIG_CONTROL_DESIGN' ));
ENDSEC;

DATA;
#1 = APPLICATION_PROTOCOL_DEFINITION ( 'international standard', 'config_control_design', 1994, #82 ) ;
#2 = DIRECTION ( 'NONE',  ( 0.000000000000000000, 0.000000000000000000, -1.000000000000000000 ) ) ;
#3 =( GEOMETRIC_REPRESENTATION_CONTEXT ( 3 ) GLOBAL_UNCERTAINTY_ASSIGNED_CONTEXT ( ( #149 ) ) GLOBAL_UNIT_ASSIGNED_CONTEXT ( ( #142, #138, #66 ) ) REPRESENTATION_CONTEXT ( 'NONE', 'WORKASPACE' ) );
#4 = PLANE ( 'NONE',  #26 ) ;
#5 = VERTEX_POINT ( 'NONE', #112 ) ;
#6 = EDGE_CURVE ( 'NONE', #23, #104, #122, .T. ) ;
#7 = PERSON_AND_ORGANIZATION_ROLE ( 'classification_officer' ) ;
#8 = AXIS2_PLACEMENT_3D ( 'NONE', #169, #47, #153 ) ;
#9 = APPROVAL_PERSON_ORGANIZATION ( #58, #28, #78 ) ;
#10 = APPROVAL_STATUS ( 'not_yet_approved' ) ;
#11 = AXIS2_PLACEMENT_3D ( 'NONE', #141, #151, #2 ) ;
#12 = PERSON_AND_ORGANIZATION ( #146, #29 ) ;
#13 = EDGE_LOOP ( 'NONE', ( #48, #158 ) ) ;
#14 = AXIS2_PLACEMENT_3D ( 'NONE', #125, #113, #128 ) ;
#15 = DIRECTION ( 'NONE',  ( 1.000000000000000000, 0.000000000000000000, 0.000000000000000000 ) ) ;
#16 = DIRECTION ( 'NONE',  ( 0.000000000000000000, 0.000000000000000000, 1.000000000000000000 ) ) ;
#17 = DATE_AND_TIME ( #165, #25 ) ;
#18 = PLANE ( 'NONE',  #14 ) ;
#19 = CC_DESIGN_DATE_AND_TIME_ASSIGNMENT ( #65, #38, ( #145 ) ) ;
#20 = CARTESIAN_POINT ( 'NONE',  ( 0.000000000000000000, 0.000000000000000000, 0.000000000000000000 ) ) ;
#21 = CLOSED_SHELL ( 'NONE', ( #171, #52, #106, #118 ) ) ;
#22 = APPROVAL_PERSON_ORGANIZATION ( #160, #108, #157 ) ;
#23 = VERTEX_POINT ( 'NONE', #123 ) ;
#24 = EDGE_CURVE ( 'NONE', #5, #104, #162, .T. ) ;
#25 = LOCAL_TIME ( 11, 17, 15.00000000000000000, #91 ) ;
#26 = AXIS2_PLACEMENT_3D ( 'NONE', #49, #15, #99 ) ;
#27 = PERSON_AND_ORGANIZATION ( #146, #29 ) ;
#28 = APPROVAL ( #10, 'UNSPECIFIED' ) ;
#29 = ORGANIZATION ( 'UNSPECIFIED', 'UNSPECIFIED', '' ) ;
#30 = DIRECTION ( 'NONE',  ( 1.000000000000000000, 0.000000000000000000, 0.000000000000000000 ) ) ;
#31 = CARTESIAN_POINT ( 'NONE',  ( -2.000000000000000000, 0.000000000000000000, 0.000000000000000000 ) ) ;
#32 = CALENDAR_DATE ( 2021, 14, 6 ) ;
#33 = DIRECTION ( 'NONE',  ( 0.000000000000000000, 0.000000000000000000, 1.000000000000000000 ) ) ;
#34 = EDGE_LOOP ( 'NONE', ( #84, #76, #71, #42 ) ) ;
#35 = APPROVAL_ROLE ( '' ) ;
#36 = VECTOR ( 'NONE', #155, 1000.000000000000000 ) ;
#37 = CIRCLE ( 'NONE', #11, 20.00000000000000000 ) ;
#38 = DATE_TIME_ROLE ( 'creation_date' ) ;
#39 = APPROVAL_STATUS ( 'not_yet_approved' ) ;
#40 = LINE ( 'NONE', #168, #36 ) ;
#41 = PRODUCT_RELATED_PRODUCT_CATEGORY ( 'detail', '', ( #166 ) ) ;
#42 = ORIENTED_EDGE ( 'NONE', *, *, #6, .T. ) ;
#43 = COORDINATED_UNIVERSAL_TIME_OFFSET ( 5, 0, .BEHIND. ) ;
#44 = PRODUCT_DEFINITION_FORMATION_WITH_SPECIFIED_SOURCE ( 'ANY', '', #166, .NOT_KNOWN. ) ;
#45 = DIRECTION ( 'NONE',  ( -1.000000000000000000, -0.000000000000000000, -0.000000000000000000 ) ) ;
#46 = DIRECTION ( 'NONE',  ( 0.000000000000000000, 0.000000000000000000, -1.000000000000000000 ) ) ;
#47 = DIRECTION ( 'NONE',  ( -1.000000000000000000, -0.000000000000000000, -0.000000000000000000 ) ) ;
#48 = ORIENTED_EDGE ( 'NONE', *, *, #79, .T. ) ;
#49 = CARTESIAN_POINT ( 'NONE',  ( -2.000000000000000000, 0.000000000000000000, 0.000000000000000000 ) ) ;
#50 = COORDINATED_UNIVERSAL_TIME_OFFSET ( 5, 0, .BEHIND. ) ;
#51 = CC_DESIGN_APPROVAL ( #108, ( #68 ) ) ;
#52 = ADVANCED_FACE ( 'NONE', ( #133 ), #86, .T. ) ;
#53 = AXIS2_PLACEMENT_3D ( 'NONE', #31, #127, #75 ) ;
#54 = CC_DESIGN_PERSON_AND_ORGANIZATION_ASSIGNMENT ( #12, #74, ( #166 ) ) ;
#55 = DATE_AND_TIME ( #132, #119 ) ;
#56 = EDGE_LOOP ( 'NONE', ( #143, #152 ) ) ;
#57 = CC_DESIGN_PERSON_AND_ORGANIZATION_ASSIGNMENT ( #121, #105, ( #44 ) ) ;
#58 = PERSON_AND_ORGANIZATION ( #146, #29 ) ;
#59 = CC_DESIGN_APPROVAL ( #28, ( #44 ) ) ;
#60 = MECHANICAL_CONTEXT ( 'NONE', #167, 'mechanical' ) ;
#61 = DIRECTION ( 'NONE',  ( 1.000000000000000000, 0.000000000000000000, 0.000000000000000000 ) ) ;
#62 = COORDINATED_UNIVERSAL_TIME_OFFSET ( 5, 0, .BEHIND. ) ;
#63 = CARTESIAN_POINT ( 'NONE',  ( 2.000000000000000000, 2.449293598294706513E-15, -20.00000000000000000 ) ) ;
#64 = APPROVAL ( #67, 'UNSPECIFIED' ) ;
#65 = DATE_AND_TIME ( #154, #140 ) ;
#66 =( NAMED_UNIT ( * ) SI_UNIT ( $, .STERADIAN. ) SOLID_ANGLE_UNIT ( ) );
#67 = APPROVAL_STATUS ( 'not_yet_approved' ) ;
#68 = SECURITY_CLASSIFICATION ( '', '', #136 ) ;
#69 = VECTOR ( 'NONE', #45, 1000.000000000000000 ) ;
#70 = PERSON_AND_ORGANIZATION ( #146, #29 ) ;
#71 = ORIENTED_EDGE ( 'NONE', *, *, #175, .T. ) ;
#72 = CC_DESIGN_PERSON_AND_ORGANIZATION_ASSIGNMENT ( #134, #7, ( #68 ) ) ;
#73 = LOCAL_TIME ( 11, 17, 15.00000000000000000, #50 ) ;
#74 = PERSON_AND_ORGANIZATION_ROLE ( 'design_owner' ) ;
#75 = DIRECTION ( 'NONE',  ( 0.000000000000000000, 0.000000000000000000, -1.000000000000000000 ) ) ;
#76 = ORIENTED_EDGE ( 'NONE', *, *, #79, .F. ) ;
#77 = CARTESIAN_POINT ( 'NONE',  ( 2.000000000000000000, 0.000000000000000000, 20.00000000000000000 ) ) ;
#78 = APPROVAL_ROLE ( '' ) ;
#79 = EDGE_CURVE ( 'NONE', #88, #5, #116, .T. ) ;
#80 = FACE_OUTER_BOUND ( 'NONE', #81, .T. ) ;
#81 = EDGE_LOOP ( 'NONE', ( #94, #109, #89, #130 ) ) ;
#82 = APPLICATION_CONTEXT ( 'configuration controlled 3d designs of mechanical parts and assemblies' ) ;
#83 = CARTESIAN_POINT ( 'NONE',  ( 2.000000000000000000, 0.000000000000000000, 0.000000000000000000 ) ) ;
#84 = ORIENTED_EDGE ( 'NONE', *, *, #24, .F. ) ;
#85 = DIRECTION ( 'NONE',  ( -1.000000000000000000, -0.000000000000000000, -0.000000000000000000 ) ) ;
#86 = CYLINDRICAL_SURFACE ( 'NONE', #163, 20.00000000000000000 ) ;
#87 = APPROVAL_DATE_TIME ( #55, #108 ) ;
#88 = VERTEX_POINT ( 'NONE', #77 ) ;
#89 = ORIENTED_EDGE ( 'NONE', *, *, #147, .T. ) ;
#90 = MANIFOLD_SOLID_BREP ( 'Boss-Extrude1', #21 ) ;
#91 = COORDINATED_UNIVERSAL_TIME_OFFSET ( 5, 0, .BEHIND. ) ;
#92 = AXIS2_PLACEMENT_3D ( 'NONE', #20, #33, #124 ) ;
#93 = FACE_OUTER_BOUND ( 'NONE', #56, .T. ) ;
#94 = ORIENTED_EDGE ( 'NONE', *, *, #100, .F. ) ;
#95 = CIRCLE ( 'NONE', #53, 20.00000000000000000 ) ;
#96 = CARTESIAN_POINT ( 'NONE',  ( -2.000000000000000000, 2.449293598294706513E-15, -20.00000000000000000 ) ) ;
#97 = APPROVAL_DATE_TIME ( #173, #28 ) ;
#98 = CARTESIAN_POINT ( 'NONE',  ( -2.000000000000000000, 0.000000000000000000, 0.000000000000000000 ) ) ;
#99 = DIRECTION ( 'NONE',  ( 0.000000000000000000, 0.000000000000000000, -1.000000000000000000 ) ) ;
#100 = EDGE_CURVE ( 'NONE', #5, #88, #37, .T. ) ;
#101 = PERSON_AND_ORGANIZATION ( #146, #29 ) ;
#102 = CC_DESIGN_APPROVAL ( #64, ( #145 ) ) ;
#103 = CC_DESIGN_DATE_AND_TIME_ASSIGNMENT ( #17, #172, ( #68 ) ) ;
#104 = VERTEX_POINT ( 'NONE', #96 ) ;
#105 = PERSON_AND_ORGANIZATION_ROLE ( 'design_supplier' ) ;
#106 = ADVANCED_FACE ( 'NONE', ( #159 ), #18, .T. ) ;
#107 = AXIS2_PLACEMENT_3D ( 'NONE', #83, #61, #46 ) ;
#108 = APPROVAL ( #39, 'UNSPECIFIED' ) ;
#109 = ORIENTED_EDGE ( 'NONE', *, *, #24, .T. ) ;
#110 = CC_DESIGN_PERSON_AND_ORGANIZATION_ASSIGNMENT ( #70, #156, ( #44 ) ) ;
#111 = COORDINATED_UNIVERSAL_TIME_OFFSET ( 5, 0, .BEHIND. ) ;
#112 = CARTESIAN_POINT ( 'NONE',  ( 2.000000000000000000, 2.449293598294706513E-15, -20.00000000000000000 ) ) ;
#113 = DIRECTION ( 'NONE',  ( 1.000000000000000000, 0.000000000000000000, 0.000000000000000000 ) ) ;
#114 = CALENDAR_DATE ( 2021, 14, 6 ) ;
#115 = APPLICATION_PROTOCOL_DEFINITION ( 'international standard', 'config_control_design', 1994, #167 ) ;
#116 = CIRCLE ( 'NONE', #107, 20.00000000000000000 ) ;
#117 = LOCAL_TIME ( 11, 17, 15.00000000000000000, #111 ) ;
#118 = ADVANCED_FACE ( 'NONE', ( #93 ), #4, .F. ) ;
#119 = LOCAL_TIME ( 11, 17, 15.00000000000000000, #62 ) ;
#120 = ADVANCED_BREP_SHAPE_REPRESENTATION ( 'Web Model 14965_14991', ( #90, #92 ), #3 ) ;
#121 = PERSON_AND_ORGANIZATION ( #146, #29 ) ;
#122 = CIRCLE ( 'NONE', #161, 20.00000000000000000 ) ;
#123 = CARTESIAN_POINT ( 'NONE',  ( -2.000000000000000000, 0.000000000000000000, 20.00000000000000000 ) ) ;
#124 = DIRECTION ( 'NONE',  ( 1.000000000000000000, 0.000000000000000000, 0.000000000000000000 ) ) ;
#125 = CARTESIAN_POINT ( 'NONE',  ( 2.000000000000000000, 0.000000000000000000, 0.000000000000000000 ) ) ;
#126 = SHAPE_DEFINITION_REPRESENTATION ( #174, #120 ) ;
#127 = DIRECTION ( 'NONE',  ( 1.000000000000000000, 0.000000000000000000, 0.000000000000000000 ) ) ;
#128 = DIRECTION ( 'NONE',  ( 0.000000000000000000, 0.000000000000000000, -1.000000000000000000 ) ) ;
#129 = APPROVAL_DATE_TIME ( #144, #64 ) ;
#130 = ORIENTED_EDGE ( 'NONE', *, *, #175, .F. ) ;
#131 = PERSON_AND_ORGANIZATION_ROLE ( 'creator' ) ;
#132 = CALENDAR_DATE ( 2021, 14, 6 ) ;
#133 = FACE_OUTER_BOUND ( 'NONE', #34, .T. ) ;
#134 = PERSON_AND_ORGANIZATION ( #146, #29 ) ;
#135 = DESIGN_CONTEXT ( 'detailed design', #82, 'design' ) ;
#136 = SECURITY_CLASSIFICATION_LEVEL ( 'unclassified' ) ;
#137 = CC_DESIGN_SECURITY_CLASSIFICATION ( #68, ( #44 ) ) ;
#138 =( NAMED_UNIT ( * ) PLANE_ANGLE_UNIT ( ) SI_UNIT ( $, .RADIAN. ) );
#139 = CARTESIAN_POINT ( 'NONE',  ( 2.000000000000000000, 0.000000000000000000, 0.000000000000000000 ) ) ;
#140 = LOCAL_TIME ( 11, 17, 15.00000000000000000, #43 ) ;
#141 = CARTESIAN_POINT ( 'NONE',  ( 2.000000000000000000, 0.000000000000000000, 0.000000000000000000 ) ) ;
#142 =( LENGTH_UNIT ( ) NAMED_UNIT ( * ) SI_UNIT ( .MILLI., .METRE. ) );
#143 = ORIENTED_EDGE ( 'NONE', *, *, #6, .F. ) ;
#144 = DATE_AND_TIME ( #114, #117 ) ;
#145 = PRODUCT_DEFINITION ( 'UNKNOWN', '', #44, #135 ) ;
#146 = PERSON ( 'UNSPECIFIED', 'UNSPECIFIED', 'UNSPECIFIED', ('UNSPECIFIED'), ('UNSPECIFIED'), ('UNSPECIFIED') ) ;
#147 = EDGE_CURVE ( 'NONE', #104, #23, #95, .T. ) ;
#148 = DIRECTION ( 'NONE',  ( 0.000000000000000000, 0.000000000000000000, -1.000000000000000000 ) ) ;
#149 = UNCERTAINTY_MEASURE_WITH_UNIT (LENGTH_MEASURE( 1.000000000000000082E-05 ), #142, 'distance_accuracy_value', 'NONE');
#150 = APPROVAL_PERSON_ORGANIZATION ( #27, #64, #35 ) ;
#151 = DIRECTION ( 'NONE',  ( 1.000000000000000000, 0.000000000000000000, 0.000000000000000000 ) ) ;
#152 = ORIENTED_EDGE ( 'NONE', *, *, #147, .F. ) ;
#153 = DIRECTION ( 'NONE',  ( 0.000000000000000000, 0.000000000000000000, 1.000000000000000000 ) ) ;
#154 = CALENDAR_DATE ( 2021, 14, 6 ) ;
#155 = DIRECTION ( 'NONE',  ( -1.000000000000000000, -0.000000000000000000, -0.000000000000000000 ) ) ;
#156 = PERSON_AND_ORGANIZATION_ROLE ( 'creator' ) ;
#157 = APPROVAL_ROLE ( '' ) ;
#158 = ORIENTED_EDGE ( 'NONE', *, *, #100, .T. ) ;
#159 = FACE_OUTER_BOUND ( 'NONE', #13, .T. ) ;
#160 = PERSON_AND_ORGANIZATION ( #146, #29 ) ;
#161 = AXIS2_PLACEMENT_3D ( 'NONE', #98, #30, #148 ) ;
#162 = LINE ( 'NONE', #63, #69 ) ;
#163 = AXIS2_PLACEMENT_3D ( 'NONE', #139, #85, #16 ) ;
#164 = CYLINDRICAL_SURFACE ( 'NONE', #8, 20.00000000000000000 ) ;
#165 = CALENDAR_DATE ( 2021, 14, 6 ) ;
#166 = PRODUCT ( 'Web Model 14965_14991', 'Web Model 14965_14991', '', ( #60 ) ) ;
#167 = APPLICATION_CONTEXT ( 'configuration controlled 3d designs of mechanical parts and assemblies' ) ;
#168 = CARTESIAN_POINT ( 'NONE',  ( 2.000000000000000000, 0.000000000000000000, 20.00000000000000000 ) ) ;
#169 = CARTESIAN_POINT ( 'NONE',  ( 2.000000000000000000, 0.000000000000000000, 0.000000000000000000 ) ) ;
#170 = CC_DESIGN_PERSON_AND_ORGANIZATION_ASSIGNMENT ( #101, #131, ( #145 ) ) ;
#171 = ADVANCED_FACE ( 'NONE', ( #80 ), #164, .T. ) ;
#172 = DATE_TIME_ROLE ( 'classification_date' ) ;
#173 = DATE_AND_TIME ( #32, #73 ) ;
#174 = PRODUCT_DEFINITION_SHAPE ( 'NONE', 'NONE',  #145 ) ;
#175 = EDGE_CURVE ( 'NONE', #88, #23, #40, .T. ) ;
ENDSEC;
END-ISO-10303-21;
