ISO-10303-21;
HEADER;
FILE_DESCRIPTION (( 'STEP AP203' ),
    '1' );
FILE_NAME ('Web Model 43367_20939.step',
    '2022-03-16T13:57:06',
    ( '' ),
    ( '' ),
    'SwSTEP 2.0',
    'SolidWorks 2021',
    '' );
FILE_SCHEMA (( 'CONFIG_CONTROL_DESIGN' ));
ENDSEC;

DATA;
#1 = VERTEX_POINT ( 'NONE', #52 ) ;
#2 = MANIFOLD_SOLID_BREP ( 'Boss-Extrude1', #141 ) ;
#3 = APPROVAL ( #73, 'UNSPECIFIED' ) ;
#4 = LINE ( 'NONE', #120, #59 ) ;
#5 = DIRECTION ( 'NONE',  ( 0.000000000000000000, 0.000000000000000000, 1.000000000000000000 ) ) ;
#6 = CARTESIAN_POINT ( 'NONE',  ( 0.000000000000000000, 0.000000000000000000, 1.000000000000000000 ) ) ;
#7 = DIRECTION ( 'NONE',  ( -0.000000000000000000, -0.000000000000000000, -1.000000000000000000 ) ) ;
#8 = PRODUCT_DEFINITION_FORMATION_WITH_SPECIFIED_SOURCE ( 'ANY', '', #170, .NOT_KNOWN. ) ;
#9 = DIRECTION ( 'NONE',  ( -0.000000000000000000, -0.000000000000000000, -1.000000000000000000 ) ) ;
#10 = ADVANCED_FACE ( 'NONE', ( #110 ), #166, .T. ) ;
#11 = DATE_AND_TIME ( #161, #142 ) ;
#12 = ORIENTED_EDGE ( 'NONE', *, *, #24, .T. ) ;
#13 = ORIENTED_EDGE ( 'NONE', *, *, #56, .F. ) ;
#14 = AXIS2_PLACEMENT_3D ( 'NONE', #132, #5, #156 ) ;
#15 = ORIENTED_EDGE ( 'NONE', *, *, #56, .T. ) ;
#16 = DIRECTION ( 'NONE',  ( -0.000000000000000000, -0.000000000000000000, -1.000000000000000000 ) ) ;
#17 = APPLICATION_PROTOCOL_DEFINITION ( 'international standard', 'config_control_design', 1994, #53 ) ;
#18 = PERSON_AND_ORGANIZATION ( #31, #48 ) ;
#19 = DIRECTION ( 'NONE',  ( 0.000000000000000000, 0.000000000000000000, 1.000000000000000000 ) ) ;
#20 = AXIS2_PLACEMENT_3D ( 'NONE', #47, #46, #58 ) ;
#21 = CIRCLE ( 'NONE', #86, 7.500000000000000000 ) ;
#22 = PERSON_AND_ORGANIZATION_ROLE ( 'creator' ) ;
#23 = SHAPE_DEFINITION_REPRESENTATION ( #172, #107 ) ;
#24 = EDGE_CURVE ( 'NONE', #1, #39, #153, .T. ) ;
#25 = CC_DESIGN_APPROVAL ( #128, ( #8 ) ) ;
#26 = EDGE_LOOP ( 'NONE', ( #140, #175, #15, #85 ) ) ;
#27 = FACE_OUTER_BOUND ( 'NONE', #165, .T. ) ;
#28 = DIRECTION ( 'NONE',  ( -0.000000000000000000, -0.000000000000000000, -1.000000000000000000 ) ) ;
#29 = CIRCLE ( 'NONE', #68, 7.500000000000000000 ) ;
#30 = PERSON_AND_ORGANIZATION ( #31, #48 ) ;
#31 = PERSON ( 'UNSPECIFIED', 'UNSPECIFIED', 'UNSPECIFIED', ('UNSPECIFIED'), ('UNSPECIFIED'), ('UNSPECIFIED') ) ;
#32 = CC_DESIGN_PERSON_AND_ORGANIZATION_ASSIGNMENT ( #49, #34, ( #87 ) ) ;
#33 = DIRECTION ( 'NONE',  ( 0.000000000000000000, 0.000000000000000000, 1.000000000000000000 ) ) ;
#34 = PERSON_AND_ORGANIZATION_ROLE ( 'classification_officer' ) ;
#35 = APPROVAL_PERSON_ORGANIZATION ( #37, #128, #50 ) ;
#36 = DATE_AND_TIME ( #125, #42 ) ;
#37 = PERSON_AND_ORGANIZATION ( #31, #48 ) ;
#38 = COORDINATED_UNIVERSAL_TIME_OFFSET ( 5, 0, .BEHIND. ) ;
#39 = VERTEX_POINT ( 'NONE', #119 ) ;
#40 = EDGE_CURVE ( 'NONE', #39, #99, #29, .T. ) ;
#41 = APPROVAL_PERSON_ORGANIZATION ( #92, #127, #64 ) ;
#42 = LOCAL_TIME ( 9, 57, 6.000000000000000000, #38 ) ;
#43 = CARTESIAN_POINT ( 'NONE',  ( 7.500000000000000000, 9.184850993605147944E-16, 1.000000000000000000 ) ) ;
#44 = EDGE_CURVE ( 'NONE', #1, #95, #101, .T. ) ;
#45 = AXIS2_PLACEMENT_3D ( 'NONE', #6, #70, #76 ) ;
#46 = DIRECTION ( 'NONE',  ( 0.000000000000000000, 0.000000000000000000, 1.000000000000000000 ) ) ;
#47 = CARTESIAN_POINT ( 'NONE',  ( 0.000000000000000000, 0.000000000000000000, 1.000000000000000000 ) ) ;
#48 = ORGANIZATION ( 'UNSPECIFIED', 'UNSPECIFIED', '' ) ;
#49 = PERSON_AND_ORGANIZATION ( #31, #48 ) ;
#50 = APPROVAL_ROLE ( '' ) ;
#51 = PERSON_AND_ORGANIZATION ( #31, #48 ) ;
#52 = CARTESIAN_POINT ( 'NONE',  ( -7.500000000000000000, 0.000000000000000000, 1.000000000000000000 ) ) ;
#53 = APPLICATION_CONTEXT ( 'configuration controlled 3d designs of mechanical parts and assemblies' ) ;
#54 = DIRECTION ( 'NONE',  ( 0.000000000000000000, 0.000000000000000000, 1.000000000000000000 ) ) ;
#55 = CARTESIAN_POINT ( 'NONE',  ( 0.000000000000000000, 0.000000000000000000, 1.000000000000000000 ) ) ;
#56 = EDGE_CURVE ( 'NONE', #99, #39, #21, .T. ) ;
#57 = MECHANICAL_CONTEXT ( 'NONE', #53, 'mechanical' ) ;
#58 = DIRECTION ( 'NONE',  ( 1.000000000000000000, 0.000000000000000000, 0.000000000000000000 ) ) ;
#59 = VECTOR ( 'NONE', #9, 1000.000000000000000 ) ;
#60 = CARTESIAN_POINT ( 'NONE',  ( 0.000000000000000000, 0.000000000000000000, 0.000000000000000000 ) ) ;
#61 = PERSON_AND_ORGANIZATION ( #31, #48 ) ;
#62 = PERSON_AND_ORGANIZATION_ROLE ( 'creator' ) ;
#63 = VECTOR ( 'NONE', #28, 1000.000000000000000 ) ;
#64 = APPROVAL_ROLE ( '' ) ;
#65 = EDGE_CURVE ( 'NONE', #95, #1, #129, .T. ) ;
#66 = COORDINATED_UNIVERSAL_TIME_OFFSET ( 5, 0, .BEHIND. ) ;
#67 = PRODUCT_RELATED_PRODUCT_CATEGORY ( 'detail', '', ( #170 ) ) ;
#68 = AXIS2_PLACEMENT_3D ( 'NONE', #158, #19, #168 ) ;
#69 = ORIENTED_EDGE ( 'NONE', *, *, #65, .T. ) ;
#70 = DIRECTION ( 'NONE',  ( 0.000000000000000000, 0.000000000000000000, 1.000000000000000000 ) ) ;
#71 = ADVANCED_FACE ( 'NONE', ( #102 ), #157, .T. ) ;
#72 = UNCERTAINTY_MEASURE_WITH_UNIT (LENGTH_MEASURE( 1.000000000000000082E-05 ), #117, 'distance_accuracy_value', 'NONE');
#73 = APPROVAL_STATUS ( 'not_yet_approved' ) ;
#74 = DIRECTION ( 'NONE',  ( 1.000000000000000000, 0.000000000000000000, 0.000000000000000000 ) ) ;
#75 = AXIS2_PLACEMENT_3D ( 'NONE', #171, #33, #136 ) ;
#76 = DIRECTION ( 'NONE',  ( 1.000000000000000000, 0.000000000000000000, 0.000000000000000000 ) ) ;
#77 = SECURITY_CLASSIFICATION_LEVEL ( 'unclassified' ) ;
#78 = PRODUCT_DEFINITION ( 'UNKNOWN', '', #8, #100 ) ;
#79 = APPROVAL_DATE_TIME ( #82, #127 ) ;
#80 = CC_DESIGN_SECURITY_CLASSIFICATION ( #87, ( #8 ) ) ;
#81 = CARTESIAN_POINT ( 'NONE',  ( -7.500000000000000000, 0.000000000000000000, 1.000000000000000000 ) ) ;
#82 = DATE_AND_TIME ( #163, #113 ) ;
#83 = ORIENTED_EDGE ( 'NONE', *, *, #44, .T. ) ;
#84 = DATE_TIME_ROLE ( 'creation_date' ) ;
#85 = ORIENTED_EDGE ( 'NONE', *, *, #24, .F. ) ;
#86 = AXIS2_PLACEMENT_3D ( 'NONE', #60, #135, #74 ) ;
#87 = SECURITY_CLASSIFICATION ( '', '', #77 ) ;
#88 = CARTESIAN_POINT ( 'NONE',  ( 0.000000000000000000, 0.000000000000000000, 1.000000000000000000 ) ) ;
#89 = PLANE ( 'NONE',  #75 ) ;
#90 = PERSON_AND_ORGANIZATION_ROLE ( 'design_owner' ) ;
#91 = DIRECTION ( 'NONE',  ( -1.000000000000000000, 0.000000000000000000, 0.000000000000000000 ) ) ;
#92 = PERSON_AND_ORGANIZATION ( #31, #48 ) ;
#93 = APPROVAL_STATUS ( 'not_yet_approved' ) ;
#94 = DATE_TIME_ROLE ( 'classification_date' ) ;
#95 = VERTEX_POINT ( 'NONE', #43 ) ;
#96 = CC_DESIGN_APPROVAL ( #127, ( #87 ) ) ;
#97 = CC_DESIGN_PERSON_AND_ORGANIZATION_ASSIGNMENT ( #109, #62, ( #8 ) ) ;
#98 = LOCAL_TIME ( 9, 57, 6.000000000000000000, #121 ) ;
#99 = VERTEX_POINT ( 'NONE', #130 ) ;
#100 = DESIGN_CONTEXT ( 'detailed design', #144, 'design' ) ;
#101 = CIRCLE ( 'NONE', #20, 7.500000000000000000 ) ;
#102 = FACE_OUTER_BOUND ( 'NONE', #124, .T. ) ;
#103 = DIRECTION ( 'NONE',  ( -1.000000000000000000, 0.000000000000000000, 0.000000000000000000 ) ) ;
#104 = CYLINDRICAL_SURFACE ( 'NONE', #164, 7.500000000000000000 ) ;
#105 = CC_DESIGN_DATE_AND_TIME_ASSIGNMENT ( #11, #94, ( #87 ) ) ;
#106 = PERSON_AND_ORGANIZATION_ROLE ( 'design_supplier' ) ;
#107 = ADVANCED_BREP_SHAPE_REPRESENTATION ( 'Web Model 43367_20939', ( #2, #14 ), #116 ) ;
#108 = APPROVAL_DATE_TIME ( #138, #128 ) ;
#109 = PERSON_AND_ORGANIZATION ( #31, #48 ) ;
#110 = FACE_OUTER_BOUND ( 'NONE', #122, .T. ) ;
#111 = AXIS2_PLACEMENT_3D ( 'NONE', #88, #54, #115 ) ;
#112 = ADVANCED_FACE ( 'NONE', ( #154 ), #104, .T. ) ;
#113 = LOCAL_TIME ( 9, 57, 6.000000000000000000, #66 ) ;
#114 = ORIENTED_EDGE ( 'NONE', *, *, #40, .T. ) ;
#115 = DIRECTION ( 'NONE',  ( 1.000000000000000000, 0.000000000000000000, -0.000000000000000000 ) ) ;
#116 =( GEOMETRIC_REPRESENTATION_CONTEXT ( 3 ) GLOBAL_UNCERTAINTY_ASSIGNED_CONTEXT ( ( #72 ) ) GLOBAL_UNIT_ASSIGNED_CONTEXT ( ( #117, #118, #167 ) ) REPRESENTATION_CONTEXT ( 'NONE', 'WORKASPACE' ) );
#117 =( LENGTH_UNIT ( ) NAMED_UNIT ( * ) SI_UNIT ( .MILLI., .METRE. ) );
#118 =( NAMED_UNIT ( * ) PLANE_ANGLE_UNIT ( ) SI_UNIT ( $, .RADIAN. ) );
#119 = CARTESIAN_POINT ( 'NONE',  ( -7.500000000000000000, 0.000000000000000000, 0.000000000000000000 ) ) ;
#120 = CARTESIAN_POINT ( 'NONE',  ( 7.500000000000000000, 9.184850993605147944E-16, 1.000000000000000000 ) ) ;
#121 = COORDINATED_UNIVERSAL_TIME_OFFSET ( 5, 0, .BEHIND. ) ;
#122 = EDGE_LOOP ( 'NONE', ( #83, #69 ) ) ;
#123 = APPROVAL_STATUS ( 'not_yet_approved' ) ;
#124 = EDGE_LOOP ( 'NONE', ( #152, #126, #12, #114 ) ) ;
#125 = CALENDAR_DATE ( 2022, 16, 3 ) ;
#126 = ORIENTED_EDGE ( 'NONE', *, *, #44, .F. ) ;
#127 = APPROVAL ( #93, 'UNSPECIFIED' ) ;
#128 = APPROVAL ( #123, 'UNSPECIFIED' ) ;
#129 = CIRCLE ( 'NONE', #45, 7.500000000000000000 ) ;
#130 = CARTESIAN_POINT ( 'NONE',  ( 7.500000000000000000, 9.184850993605147944E-16, 0.000000000000000000 ) ) ;
#131 = LOCAL_TIME ( 9, 57, 6.000000000000000000, #173 ) ;
#132 = CARTESIAN_POINT ( 'NONE',  ( 0.000000000000000000, 0.000000000000000000, 0.000000000000000000 ) ) ;
#133 = CC_DESIGN_DATE_AND_TIME_ASSIGNMENT ( #36, #84, ( #78 ) ) ;
#134 = APPROVAL_ROLE ( '' ) ;
#135 = DIRECTION ( 'NONE',  ( 0.000000000000000000, 0.000000000000000000, 1.000000000000000000 ) ) ;
#136 = DIRECTION ( 'NONE',  ( 1.000000000000000000, 0.000000000000000000, -0.000000000000000000 ) ) ;
#137 = COORDINATED_UNIVERSAL_TIME_OFFSET ( 5, 0, .BEHIND. ) ;
#138 = DATE_AND_TIME ( #160, #98 ) ;
#139 = ORIENTED_EDGE ( 'NONE', *, *, #40, .F. ) ;
#140 = ORIENTED_EDGE ( 'NONE', *, *, #65, .F. ) ;
#141 = CLOSED_SHELL ( 'NONE', ( #112, #71, #10, #155 ) ) ;
#142 = LOCAL_TIME ( 9, 57, 6.000000000000000000, #137 ) ;
#143 = AXIS2_PLACEMENT_3D ( 'NONE', #145, #16, #103 ) ;
#144 = APPLICATION_CONTEXT ( 'configuration controlled 3d designs of mechanical parts and assemblies' ) ;
#145 = CARTESIAN_POINT ( 'NONE',  ( 0.000000000000000000, 0.000000000000000000, 1.000000000000000000 ) ) ;
#146 = CC_DESIGN_PERSON_AND_ORGANIZATION_ASSIGNMENT ( #30, #90, ( #170 ) ) ;
#147 = APPLICATION_PROTOCOL_DEFINITION ( 'international standard', 'config_control_design', 1994, #144 ) ;
#148 = APPROVAL_DATE_TIME ( #159, #3 ) ;
#149 = CC_DESIGN_PERSON_AND_ORGANIZATION_ASSIGNMENT ( #51, #106, ( #8 ) ) ;
#150 = APPROVAL_PERSON_ORGANIZATION ( #18, #3, #134 ) ;
#151 = CALENDAR_DATE ( 2022, 16, 3 ) ;
#152 = ORIENTED_EDGE ( 'NONE', *, *, #174, .F. ) ;
#153 = LINE ( 'NONE', #81, #63 ) ;
#154 = FACE_OUTER_BOUND ( 'NONE', #26, .T. ) ;
#155 = ADVANCED_FACE ( 'NONE', ( #27 ), #89, .F. ) ;
#156 = DIRECTION ( 'NONE',  ( 1.000000000000000000, 0.000000000000000000, 0.000000000000000000 ) ) ;
#157 = CYLINDRICAL_SURFACE ( 'NONE', #143, 7.500000000000000000 ) ;
#158 = CARTESIAN_POINT ( 'NONE',  ( 0.000000000000000000, 0.000000000000000000, 0.000000000000000000 ) ) ;
#159 = DATE_AND_TIME ( #151, #131 ) ;
#160 = CALENDAR_DATE ( 2022, 16, 3 ) ;
#161 = CALENDAR_DATE ( 2022, 16, 3 ) ;
#162 = CC_DESIGN_PERSON_AND_ORGANIZATION_ASSIGNMENT ( #61, #22, ( #78 ) ) ;
#163 = CALENDAR_DATE ( 2022, 16, 3 ) ;
#164 = AXIS2_PLACEMENT_3D ( 'NONE', #55, #7, #91 ) ;
#165 = EDGE_LOOP ( 'NONE', ( #139, #13 ) ) ;
#166 = PLANE ( 'NONE',  #111 ) ;
#167 =( NAMED_UNIT ( * ) SI_UNIT ( $, .STERADIAN. ) SOLID_ANGLE_UNIT ( ) );
#168 = DIRECTION ( 'NONE',  ( 1.000000000000000000, 0.000000000000000000, 0.000000000000000000 ) ) ;
#169 = CC_DESIGN_APPROVAL ( #3, ( #78 ) ) ;
#170 = PRODUCT ( 'Web Model 43367_20939', 'Web Model 43367_20939', '', ( #57 ) ) ;
#171 = CARTESIAN_POINT ( 'NONE',  ( 0.000000000000000000, 0.000000000000000000, 0.000000000000000000 ) ) ;
#172 = PRODUCT_DEFINITION_SHAPE ( 'NONE', 'NONE',  #78 ) ;
#173 = COORDINATED_UNIVERSAL_TIME_OFFSET ( 5, 0, .BEHIND. ) ;
#174 = EDGE_CURVE ( 'NONE', #95, #99, #4, .T. ) ;
#175 = ORIENTED_EDGE ( 'NONE', *, *, #174, .T. ) ;
ENDSEC;
END-ISO-10303-21;
