ISO-10303-21;
HEADER;
FILE_DESCRIPTION (( 'STEP AP203' ),
    '1' );
FILE_NAME ('Web Model 48459MX_41016.step',
    '2017-10-30T13:21:08',
    ( '' ),
    ( '' ),
    'SwSTEP 2.0',
    'SolidWorks 2016',
    '' );
FILE_SCHEMA (( 'CONFIG_CONTROL_DESIGN' ));
ENDSEC;

DATA;
#1 = PRODUCT ( 'Web Model 48459MX_41016', 'Web Model 48459MX_41016', '', ( #197 ) ) ;
#2 = EDGE_LOOP ( 'NONE', ( #80, #76, #44, #183 ) ) ;
#3 = EDGE_CURVE ( 'NONE', #201, #110, #138, .T. ) ;
#4 = VECTOR ( 'NONE', #173, 1000.000000000000000 ) ;
#5 = ORIENTED_EDGE ( 'NONE', *, *, #149, .F. ) ;
#6 = CARTESIAN_POINT ( 'NONE',  ( 24.99999999999999600, -24.99999999999999600, 4.750000000000000000 ) ) ;
#7 = CC_DESIGN_APPROVAL ( #198, ( #59 ) ) ;
#8 = CARTESIAN_POINT ( 'NONE',  ( -25.00000000000000400, -25.00000000000000400, 4.750000000000000000 ) ) ;
#9 = VERTEX_POINT ( 'NONE', #57 ) ;
#10 = CARTESIAN_POINT ( 'NONE',  ( -25.00000000000000400, -25.00000000000000400, 4.750000000000000000 ) ) ;
#11 = CARTESIAN_POINT ( 'NONE',  ( 24.99999999999999600, -24.99999999999999600, 4.750000000000000000 ) ) ;
#12 = FACE_OUTER_BOUND ( 'NONE', #106, .T. ) ;
#13 = CARTESIAN_POINT ( 'NONE',  ( -25.00000000000000400, -25.00000000000000400, -4.750000000000000000 ) ) ;
#14 = AXIS2_PLACEMENT_3D ( 'NONE', #102, #83, #130 ) ;
#15 = PERSON_AND_ORGANIZATION_ROLE ( 'creator' ) ;
#16 = ORIENTED_EDGE ( 'NONE', *, *, #75, .T. ) ;
#17 = EDGE_CURVE ( 'NONE', #96, #160, #126, .T. ) ;
#18 = DATE_AND_TIME ( #125, #159 ) ;
#19 = EDGE_CURVE ( 'NONE', #167, #96, #142, .T. ) ;
#20 = PRODUCT_DEFINITION_FORMATION_WITH_SPECIFIED_SOURCE ( 'ANY', '', #1, .NOT_KNOWN. ) ;
#21 = PRODUCT_DEFINITION_SHAPE ( 'NONE', 'NONE',  #209 ) ;
#22 = ORIENTED_EDGE ( 'NONE', *, *, #53, .T. ) ;
#23 = LOCAL_TIME ( 9, 21, 8.000000000000000000, #237 ) ;
#24 = CC_DESIGN_PERSON_AND_ORGANIZATION_ASSIGNMENT ( #172, #15, ( #20 ) ) ;
#25 = ORIENTED_EDGE ( 'NONE', *, *, #149, .T. ) ;
#26 = CARTESIAN_POINT ( 'NONE',  ( 24.99999999999999600, 25.00000000000000400, -4.750000000000000000 ) ) ;
#27 = VECTOR ( 'NONE', #169, 1000.000000000000000 ) ;
#28 = ORIENTED_EDGE ( 'NONE', *, *, #3, .T. ) ;
#29 = DIRECTION ( 'NONE',  ( 0.0000000000000000000, 1.000000000000000000, 0.0000000000000000000 ) ) ;
#30 = DIRECTION ( 'NONE',  ( -1.000000000000000000, -1.387778780781445700E-016, 0.0000000000000000000 ) ) ;
#31 = DIRECTION ( 'NONE',  ( 0.0000000000000000000, 0.0000000000000000000, 1.000000000000000000 ) ) ;
#32 = ORIENTED_EDGE ( 'NONE', *, *, #228, .F. ) ;
#33 = EDGE_CURVE ( 'NONE', #191, #9, #170, .T. ) ;
#34 =( GEOMETRIC_REPRESENTATION_CONTEXT ( 3 ) GLOBAL_UNCERTAINTY_ASSIGNED_CONTEXT ( ( #174 ) ) GLOBAL_UNIT_ASSIGNED_CONTEXT ( ( #131, #229, #196 ) ) REPRESENTATION_CONTEXT ( 'NONE', 'WORKASPACE' ) );
#35 = ORIENTED_EDGE ( 'NONE', *, *, #17, .F. ) ;
#36 = APPROVAL_STATUS ( 'not_yet_approved' ) ;
#37 = CC_DESIGN_PERSON_AND_ORGANIZATION_ASSIGNMENT ( #158, #215, ( #209 ) ) ;
#38 = ADVANCED_FACE ( 'NONE', ( #236 ), #146, .F. ) ;
#39 = EDGE_CURVE ( 'NONE', #9, #96, #200, .T. ) ;
#40 = FACE_OUTER_BOUND ( 'NONE', #127, .T. ) ;
#41 = DATE_AND_TIME ( #46, #23 ) ;
#42 = PLANE ( 'NONE',  #89 ) ;
#43 = CC_DESIGN_DATE_AND_TIME_ASSIGNMENT ( #233, #136, ( #209 ) ) ;
#44 = ORIENTED_EDGE ( 'NONE', *, *, #53, .F. ) ;
#45 = CARTESIAN_POINT ( 'NONE',  ( 24.99999999999999600, -24.99999999999999600, 4.750000000000000000 ) ) ;
#46 = CALENDAR_DATE ( 2017, 30, 10 ) ;
#47 = APPLICATION_CONTEXT ( 'configuration controlled 3d designs of mechanical parts and assemblies' ) ;
#48 = ORIENTED_EDGE ( 'NONE', *, *, #91, .T. ) ;
#49 = SECURITY_CLASSIFICATION_LEVEL ( 'unclassified' ) ;
#50 = ORIENTED_EDGE ( 'NONE', *, *, #67, .F. ) ;
#51 = LINE ( 'NONE', #153, #4 ) ;
#52 = PERSON_AND_ORGANIZATION_ROLE ( 'classification_officer' ) ;
#53 = EDGE_CURVE ( 'NONE', #191, #167, #111, .T. ) ;
#54 = ORIENTED_EDGE ( 'NONE', *, *, #75, .F. ) ;
#55 = LINE ( 'NONE', #119, #116 ) ;
#56 = CALENDAR_DATE ( 2017, 30, 10 ) ;
#57 = CARTESIAN_POINT ( 'NONE',  ( 24.99999999999999600, -24.99999999999999600, -4.750000000000000000 ) ) ;
#58 = ADVANCED_FACE ( 'NONE', ( #135 ), #60, .F. ) ;
#59 = SECURITY_CLASSIFICATION ( '', '', #49 ) ;
#60 = PLANE ( 'NONE',  #137 ) ;
#61 = DIRECTION ( 'NONE',  ( 1.000000000000000000, 1.387778780781445700E-016, 0.0000000000000000000 ) ) ;
#62 = PERSON_AND_ORGANIZATION ( #181, #152 ) ;
#63 = DIRECTION ( 'NONE',  ( -0.0000000000000000000, -1.000000000000000000, -0.0000000000000000000 ) ) ;
#64 = APPROVAL_DATE_TIME ( #221, #198 ) ;
#65 = APPROVAL_ROLE ( '' ) ;
#66 = ORIENTED_EDGE ( 'NONE', *, *, #17, .T. ) ;
#67 = EDGE_CURVE ( 'NONE', #122, #201, #123, .T. ) ;
#68 = FACE_OUTER_BOUND ( 'NONE', #148, .T. ) ;
#69 = DATE_TIME_ROLE ( 'classification_date' ) ;
#70 = APPROVAL_DATE_TIME ( #41, #187 ) ;
#71 = PERSON_AND_ORGANIZATION ( #181, #152 ) ;
#72 = CC_DESIGN_DATE_AND_TIME_ASSIGNMENT ( #18, #69, ( #59 ) ) ;
#73 = ORIENTED_EDGE ( 'NONE', *, *, #228, .T. ) ;
#74 = DIRECTION ( 'NONE',  ( -0.0000000000000000000, -0.0000000000000000000, -1.000000000000000000 ) ) ;
#75 = EDGE_CURVE ( 'NONE', #122, #160, #51, .T. ) ;
#76 = ORIENTED_EDGE ( 'NONE', *, *, #19, .F. ) ;
#77 = APPROVAL_PERSON_ORGANIZATION ( #155, #198, #94 ) ;
#78 = PERSON_AND_ORGANIZATION ( #181, #152 ) ;
#79 = ADVANCED_FACE ( 'NONE', ( #92 ), #168, .F. ) ;
#80 = ORIENTED_EDGE ( 'NONE', *, *, #39, .T. ) ;
#81 = DIRECTION ( 'NONE',  ( -0.0000000000000000000, -1.000000000000000000, -0.0000000000000000000 ) ) ;
#82 = AXIS2_PLACEMENT_3D ( 'NONE', #182, #206, #113 ) ;
#83 = DIRECTION ( 'NONE',  ( 0.0000000000000000000, -0.0000000000000000000, 1.000000000000000000 ) ) ;
#84 = CARTESIAN_POINT ( 'NONE',  ( 24.99999999999999600, 25.00000000000000400, 4.750000000000000000 ) ) ;
#85 = ORIENTED_EDGE ( 'NONE', *, *, #3, .F. ) ;
#86 = PLANE ( 'NONE',  #177 ) ;
#87 = SHAPE_DEFINITION_REPRESENTATION ( #21, #145 ) ;
#88 = PERSON_AND_ORGANIZATION_ROLE ( 'design_owner' ) ;
#89 = AXIS2_PLACEMENT_3D ( 'NONE', #213, #193, #30 ) ;
#90 = APPLICATION_CONTEXT ( 'configuration controlled 3d designs of mechanical parts and assemblies' ) ;
#91 = EDGE_CURVE ( 'NONE', #110, #9, #194, .T. ) ;
#92 = FACE_OUTER_BOUND ( 'NONE', #210, .T. ) ;
#93 = CALENDAR_DATE ( 2017, 30, 10 ) ;
#94 = APPROVAL_ROLE ( '' ) ;
#95 = VECTOR ( 'NONE', #29, 1000.000000000000000 ) ;
#96 = VERTEX_POINT ( 'NONE', #26 ) ;
#97 = APPROVAL ( #120, 'UNSPECIFIED' ) ;
#98 = DIRECTION ( 'NONE',  ( 1.000000000000000000, 0.0000000000000000000, -0.0000000000000000000 ) ) ;
#99 = CARTESIAN_POINT ( 'NONE',  ( -25.00000000000000400, 24.99999999999999600, -4.750000000000000000 ) ) ;
#100 = VECTOR ( 'NONE', #226, 1000.000000000000000 ) ;
#101 = PLANE ( 'NONE',  #14 ) ;
#102 = CARTESIAN_POINT ( 'NONE',  ( 0.0000000000000000000, 0.0000000000000000000, 4.750000000000000000 ) ) ;
#103 = LINE ( 'NONE', #150, #232 ) ;
#104 = COORDINATED_UNIVERSAL_TIME_OFFSET ( 5, 0, .BEHIND. ) ;
#105 = CARTESIAN_POINT ( 'NONE',  ( 24.99999999999999600, -24.99999999999999600, -4.750000000000000000 ) ) ;
#106 = EDGE_LOOP ( 'NONE', ( #217, #73, #22, #162 ) ) ;
#107 = APPROVAL_PERSON_ORGANIZATION ( #62, #97, #176 ) ;
#108 = ORIENTED_EDGE ( 'NONE', *, *, #39, .F. ) ;
#109 = CC_DESIGN_SECURITY_CLASSIFICATION ( #59, ( #20 ) ) ;
#110 = VERTEX_POINT ( 'NONE', #13 ) ;
#111 = LINE ( 'NONE', #11, #95 ) ;
#112 = LOCAL_TIME ( 9, 21, 8.000000000000000000, #195 ) ;
#113 = DIRECTION ( 'NONE',  ( 0.0000000000000000000, 0.0000000000000000000, -1.000000000000000000 ) ) ;
#114 = CARTESIAN_POINT ( 'NONE',  ( 24.99999999999999600, -24.99999999999999600, 4.750000000000000000 ) ) ;
#115 = DIRECTION ( 'NONE',  ( -1.000000000000000000, 0.0000000000000000000, 0.0000000000000000000 ) ) ;
#116 = VECTOR ( 'NONE', #63, 1000.000000000000000 ) ;
#117 = DIRECTION ( 'NONE',  ( 1.387778780781445700E-016, -1.000000000000000000, 0.0000000000000000000 ) ) ;
#118 = DIRECTION ( 'NONE',  ( 1.000000000000000000, 1.387778780781445700E-016, -0.0000000000000000000 ) ) ;
#119 = CARTESIAN_POINT ( 'NONE',  ( -25.00000000000000400, -25.00000000000000400, -4.750000000000000000 ) ) ;
#120 = APPROVAL_STATUS ( 'not_yet_approved' ) ;
#121 = CC_DESIGN_PERSON_AND_ORGANIZATION_ASSIGNMENT ( #71, #52, ( #59 ) ) ;
#122 = VERTEX_POINT ( 'NONE', #227 ) ;
#123 = LINE ( 'NONE', #10, #218 ) ;
#124 = EDGE_CURVE ( 'NONE', #167, #122, #103, .T. ) ;
#125 = CALENDAR_DATE ( 2017, 30, 10 ) ;
#126 = LINE ( 'NONE', #143, #199 ) ;
#127 = EDGE_LOOP ( 'NONE', ( #48, #224, #32, #28 ) ) ;
#128 = DIRECTION ( 'NONE',  ( -0.0000000000000000000, -0.0000000000000000000, -1.000000000000000000 ) ) ;
#129 = DIRECTION ( 'NONE',  ( -1.000000000000000000, -1.387778780781445700E-016, 0.0000000000000000000 ) ) ;
#130 = DIRECTION ( 'NONE',  ( 1.000000000000000000, 0.0000000000000000000, -0.0000000000000000000 ) ) ;
#131 =( LENGTH_UNIT ( ) NAMED_UNIT ( * ) SI_UNIT ( .MILLI., .METRE. ) );
#132 = VECTOR ( 'NONE', #128, 1000.000000000000000 ) ;
#133 = PERSON_AND_ORGANIZATION ( #181, #152 ) ;
#134 = CARTESIAN_POINT ( 'NONE',  ( 0.0000000000000000000, 0.0000000000000000000, -4.750000000000000000 ) ) ;
#135 = FACE_OUTER_BOUND ( 'NONE', #2, .T. ) ;
#136 = DATE_TIME_ROLE ( 'creation_date' ) ;
#137 = AXIS2_PLACEMENT_3D ( 'NONE', #45, #115, #188 ) ;
#138 = LINE ( 'NONE', #164, #100 ) ;
#139 = PERSON_AND_ORGANIZATION ( #181, #152 ) ;
#140 = ORIENTED_EDGE ( 'NONE', *, *, #19, .T. ) ;
#141 = CC_DESIGN_PERSON_AND_ORGANIZATION_ASSIGNMENT ( #78, #88, ( #1 ) ) ;
#142 = LINE ( 'NONE', #204, #132 ) ;
#143 = CARTESIAN_POINT ( 'NONE',  ( 24.99999999999999600, 25.00000000000000400, -4.750000000000000000 ) ) ;
#144 = DESIGN_CONTEXT ( 'detailed design', #47, 'design' ) ;
#145 = ADVANCED_BREP_SHAPE_REPRESENTATION ( 'Web Model 48459MX_41016', ( #220, #225 ), #34 ) ;
#146 = PLANE ( 'NONE',  #82 ) ;
#147 = DIRECTION ( 'NONE',  ( 0.0000000000000000000, 1.000000000000000000, 0.0000000000000000000 ) ) ;
#148 = EDGE_LOOP ( 'NONE', ( #66, #54, #178, #140 ) ) ;
#149 = EDGE_CURVE ( 'NONE', #160, #110, #55, .T. ) ;
#150 = CARTESIAN_POINT ( 'NONE',  ( 24.99999999999999600, 25.00000000000000400, 4.750000000000000000 ) ) ;
#151 = CARTESIAN_POINT ( 'NONE',  ( 24.99999999999999600, 25.00000000000000400, 4.750000000000000000 ) ) ;
#152 = ORGANIZATION ( 'UNSPECIFIED', 'UNSPECIFIED', '' ) ;
#153 = CARTESIAN_POINT ( 'NONE',  ( -25.00000000000000400, 24.99999999999999600, 4.750000000000000000 ) ) ;
#154 = APPLICATION_PROTOCOL_DEFINITION ( 'international standard', 'config_control_design', 1994, #90 ) ;
#155 = PERSON_AND_ORGANIZATION ( #181, #152 ) ;
#156 = PERSON_AND_ORGANIZATION_ROLE ( 'design_supplier' ) ;
#157 = CC_DESIGN_APPROVAL ( #97, ( #20 ) ) ;
#158 = PERSON_AND_ORGANIZATION ( #181, #152 ) ;
#159 = LOCAL_TIME ( 9, 21, 8.000000000000000000, #179 ) ;
#160 = VERTEX_POINT ( 'NONE', #99 ) ;
#161 = VECTOR ( 'NONE', #147, 1000.000000000000000 ) ;
#162 = ORIENTED_EDGE ( 'NONE', *, *, #124, .T. ) ;
#163 = CALENDAR_DATE ( 2017, 30, 10 ) ;
#164 = CARTESIAN_POINT ( 'NONE',  ( -25.00000000000000400, -25.00000000000000400, 4.750000000000000000 ) ) ;
#165 = ADVANCED_FACE ( 'NONE', ( #68 ), #86, .F. ) ;
#166 = CC_DESIGN_PERSON_AND_ORGANIZATION_ASSIGNMENT ( #133, #156, ( #20 ) ) ;
#167 = VERTEX_POINT ( 'NONE', #151 ) ;
#168 = PLANE ( 'NONE',  #190 ) ;
#169 = DIRECTION ( 'NONE',  ( 1.000000000000000000, 1.387778780781445700E-016, -0.0000000000000000000 ) ) ;
#170 = LINE ( 'NONE', #6, #184 ) ;
#171 = CARTESIAN_POINT ( 'NONE',  ( 24.99999999999999600, -24.99999999999999600, 4.750000000000000000 ) ) ;
#172 = PERSON_AND_ORGANIZATION ( #181, #152 ) ;
#173 = DIRECTION ( 'NONE',  ( -0.0000000000000000000, -0.0000000000000000000, -1.000000000000000000 ) ) ;
#174 = UNCERTAINTY_MEASURE_WITH_UNIT (LENGTH_MEASURE( 1.000000000000000100E-005 ), #131, 'distance_accuracy_value', 'NONE');
#175 = APPROVAL_STATUS ( 'not_yet_approved' ) ;
#176 = APPROVAL_ROLE ( '' ) ;
#177 = AXIS2_PLACEMENT_3D ( 'NONE', #84, #117, #61 ) ;
#178 = ORIENTED_EDGE ( 'NONE', *, *, #124, .F. ) ;
#179 = COORDINATED_UNIVERSAL_TIME_OFFSET ( 5, 0, .BEHIND. ) ;
#180 = PRODUCT_RELATED_PRODUCT_CATEGORY ( 'detail', '', ( #1 ) ) ;
#181 = PERSON ( 'UNSPECIFIED', 'UNSPECIFIED', 'UNSPECIFIED', ('UNSPECIFIED'), ('UNSPECIFIED'), ('UNSPECIFIED') ) ;
#182 = CARTESIAN_POINT ( 'NONE',  ( -25.00000000000000400, -25.00000000000000400, 4.750000000000000000 ) ) ;
#183 = ORIENTED_EDGE ( 'NONE', *, *, #33, .T. ) ;
#184 = VECTOR ( 'NONE', #74, 1000.000000000000000 ) ;
#185 = ADVANCED_FACE ( 'NONE', ( #40 ), #42, .F. ) ;
#186 = LOCAL_TIME ( 9, 21, 8.000000000000000000, #104 ) ;
#187 = APPROVAL ( #175, 'UNSPECIFIED' ) ;
#188 = DIRECTION ( 'NONE',  ( 0.0000000000000000000, 0.0000000000000000000, 1.000000000000000000 ) ) ;
#189 = CARTESIAN_POINT ( 'NONE',  ( 24.99999999999999600, -24.99999999999999600, -4.750000000000000000 ) ) ;
#190 = AXIS2_PLACEMENT_3D ( 'NONE', #134, #231, #98 ) ;
#191 = VERTEX_POINT ( 'NONE', #114 ) ;
#192 = DIRECTION ( 'NONE',  ( -1.000000000000000000, -1.387778780781445700E-016, 0.0000000000000000000 ) ) ;
#193 = DIRECTION ( 'NONE',  ( -1.387778780781445700E-016, 1.000000000000000000, 0.0000000000000000000 ) ) ;
#194 = LINE ( 'NONE', #189, #205 ) ;
#195 = COORDINATED_UNIVERSAL_TIME_OFFSET ( 5, 0, .BEHIND. ) ;
#196 =( NAMED_UNIT ( * ) SI_UNIT ( $, .STERADIAN. ) SOLID_ANGLE_UNIT ( ) );
#197 = MECHANICAL_CONTEXT ( 'NONE', #90, 'mechanical' ) ;
#198 = APPROVAL ( #36, 'UNSPECIFIED' ) ;
#199 = VECTOR ( 'NONE', #129, 1000.000000000000000 ) ;
#200 = LINE ( 'NONE', #105, #161 ) ;
#201 = VERTEX_POINT ( 'NONE', #8 ) ;
#202 = APPROVAL_DATE_TIME ( #207, #97 ) ;
#203 = EDGE_LOOP ( 'NONE', ( #25, #85, #50, #16 ) ) ;
#204 = CARTESIAN_POINT ( 'NONE',  ( 24.99999999999999600, 25.00000000000000400, 4.750000000000000000 ) ) ;
#205 = VECTOR ( 'NONE', #118, 1000.000000000000000 ) ;
#206 = DIRECTION ( 'NONE',  ( 1.000000000000000000, 0.0000000000000000000, 0.0000000000000000000 ) ) ;
#207 = DATE_AND_TIME ( #56, #186 ) ;
#208 = ADVANCED_FACE ( 'NONE', ( #12 ), #101, .T. ) ;
#209 = PRODUCT_DEFINITION ( 'UNKNOWN', '', #20, #144 ) ;
#210 = EDGE_LOOP ( 'NONE', ( #5, #35, #108, #219 ) ) ;
#211 = CARTESIAN_POINT ( 'NONE',  ( 0.0000000000000000000, 0.0000000000000000000, 0.0000000000000000000 ) ) ;
#212 = APPROVAL_PERSON_ORGANIZATION ( #139, #187, #65 ) ;
#213 = CARTESIAN_POINT ( 'NONE',  ( 24.99999999999999600, -24.99999999999999600, 4.750000000000000000 ) ) ;
#214 = COORDINATED_UNIVERSAL_TIME_OFFSET ( 5, 0, .BEHIND. ) ;
#215 = PERSON_AND_ORGANIZATION_ROLE ( 'creator' ) ;
#216 = DIRECTION ( 'NONE',  ( 1.000000000000000000, 0.0000000000000000000, 0.0000000000000000000 ) ) ;
#217 = ORIENTED_EDGE ( 'NONE', *, *, #67, .T. ) ;
#218 = VECTOR ( 'NONE', #81, 1000.000000000000000 ) ;
#219 = ORIENTED_EDGE ( 'NONE', *, *, #91, .F. ) ;
#220 = MANIFOLD_SOLID_BREP ( 'Boss-Extrude1', #222 ) ;
#221 = DATE_AND_TIME ( #163, #230 ) ;
#222 = CLOSED_SHELL ( 'NONE', ( #38, #185, #58, #165, #208, #79 ) ) ;
#223 = LINE ( 'NONE', #171, #27 ) ;
#224 = ORIENTED_EDGE ( 'NONE', *, *, #33, .F. ) ;
#225 = AXIS2_PLACEMENT_3D ( 'NONE', #211, #31, #216 ) ;
#226 = DIRECTION ( 'NONE',  ( -0.0000000000000000000, -0.0000000000000000000, -1.000000000000000000 ) ) ;
#227 = CARTESIAN_POINT ( 'NONE',  ( -25.00000000000000400, 24.99999999999999600, 4.750000000000000000 ) ) ;
#228 = EDGE_CURVE ( 'NONE', #201, #191, #223, .T. ) ;
#229 =( NAMED_UNIT ( * ) PLANE_ANGLE_UNIT ( ) SI_UNIT ( $, .RADIAN. ) );
#230 = LOCAL_TIME ( 9, 21, 8.000000000000000000, #214 ) ;
#231 = DIRECTION ( 'NONE',  ( 0.0000000000000000000, -0.0000000000000000000, 1.000000000000000000 ) ) ;
#232 = VECTOR ( 'NONE', #192, 1000.000000000000000 ) ;
#233 = DATE_AND_TIME ( #93, #112 ) ;
#234 = APPLICATION_PROTOCOL_DEFINITION ( 'international standard', 'config_control_design', 1994, #47 ) ;
#235 = CC_DESIGN_APPROVAL ( #187, ( #209 ) ) ;
#236 = FACE_OUTER_BOUND ( 'NONE', #203, .T. ) ;
#237 = COORDINATED_UNIVERSAL_TIME_OFFSET ( 5, 0, .BEHIND. ) ;
ENDSEC;
END-ISO-10303-21;
