ISO-10303-21;
HEADER;
FILE_DESCRIPTION (( 'STEP AP203' ),
    '1' );
FILE_NAME ('Web Model 68551.STEP',
    '2017-02-01T13:31:24',
    ( '' ),
    ( '' ),
    'SwSTEP 2.0',
    'SolidWorks 2016',
    '' );
FILE_SCHEMA (( 'CONFIG_CONTROL_DESIGN' ));
ENDSEC;

DATA;
#1 = CARTESIAN_POINT ( 'NONE',  ( 25.00000000000000000, 25.00000000000000000, 0.0000000000000000000 ) ) ;
#2 = FACE_OUTER_BOUND ( 'NONE', #123, .T. ) ;
#3 = EDGE_LOOP ( 'NONE', ( #250, #43, #182, #26 ) ) ;
#4 = APPLICATION_PROTOCOL_DEFINITION ( 'international standard', 'config_control_design', 1994, #33 ) ;
#5 = LOCAL_TIME ( 8, 31, 24.00000000000000000, #93 ) ;
#6 = LINE ( 'NONE', #141, #145 ) ;
#7 = PERSON ( 'UNSPECIFIED', 'UNSPECIFIED', 'UNSPECIFIED', ('UNSPECIFIED'), ('UNSPECIFIED'), ('UNSPECIFIED') ) ;
#8 = VECTOR ( 'NONE', #97, 1000.000000000000000 ) ;
#9 = AXIS2_PLACEMENT_3D ( 'NONE', #169, #289, #17 ) ;
#10 = LOCAL_TIME ( 8, 31, 24.00000000000000000, #142 ) ;
#11 = PERSON_AND_ORGANIZATION ( #7, #66 ) ;
#12 = VERTEX_POINT ( 'NONE', #188 ) ;
#13 = EDGE_CURVE ( 'NONE', #307, #12, #114, .T. ) ;
#14 = LINE ( 'NONE', #137, #246 ) ;
#15 = DIRECTION ( 'NONE',  ( 1.000000000000000000, 0.0000000000000000000, -0.0000000000000000000 ) ) ;
#16 = EDGE_LOOP ( 'NONE', ( #191, #44, #179, #235 ) ) ;
#17 = DIRECTION ( 'NONE',  ( -0.7071067811865476800, 0.0000000000000000000, -0.7071067811865474600 ) ) ;
#18 = AXIS2_PLACEMENT_3D ( 'NONE', #95, #166, #15 ) ;
#19 = DIRECTION ( 'NONE',  ( 0.0000000000000000000, 0.0000000000000000000, -1.000000000000000000 ) ) ;
#20 = ADVANCED_FACE ( 'NONE', ( #227 ), #213, .F. ) ;
#21 = PERSON_AND_ORGANIZATION ( #7, #66 ) ;
#22 = CARTESIAN_POINT ( 'NONE',  ( 0.0000000000000000000, 0.0000000000000000000, 0.0000000000000000000 ) ) ;
#23 = CLOSED_SHELL ( 'NONE', ( #20, #167, #98, #291, #315 ) ) ;
#24 = CARTESIAN_POINT ( 'NONE',  ( 0.0000000000000000000, 25.00000000000000000, -25.00000000000000000 ) ) ;
#25 = DIRECTION ( 'NONE',  ( 1.000000000000000000, -0.0000000000000000000, 0.0000000000000000000 ) ) ;
#26 = ORIENTED_EDGE ( 'NONE', *, *, #314, .T. ) ;
#27 = VECTOR ( 'NONE', #119, 1000.000000000000000 ) ;
#28 = EDGE_LOOP ( 'NONE', ( #29, #210, #107 ) ) ;
#29 = ORIENTED_EDGE ( 'NONE', *, *, #57, .F. ) ;
#30 = APPROVAL ( #275, 'UNSPECIFIED' ) ;
#31 = LINE ( 'NONE', #316, #206 ) ;
#32 = DIRECTION ( 'NONE',  ( 0.0000000000000000000, 0.0000000000000000000, -1.000000000000000000 ) ) ;
#33 = APPLICATION_CONTEXT ( 'configuration controlled 3d designs of mechanical parts and assemblies' ) ;
#34 = ORIENTED_EDGE ( 'NONE', *, *, #49, .F. ) ;
#35 = EDGE_LOOP ( 'NONE', ( #75, #297, #249, #242 ) ) ;
#36 = FACE_OUTER_BOUND ( 'NONE', #35, .T. ) ;
#37 = DESIGN_CONTEXT ( 'detailed design', #203, 'design' ) ;
#38 = PRODUCT_DEFINITION_FORMATION_WITH_SPECIFIED_SOURCE ( 'ANY', '', #311, .NOT_KNOWN. ) ;
#39 = CC_DESIGN_DATE_AND_TIME_ASSIGNMENT ( #135, #277, ( #132 ) ) ;
#40 = VECTOR ( 'NONE', #177, 1000.000000000000000 ) ;
#41 = MANIFOLD_SOLID_BREP ( 'Extrude1', #298 ) ;
#42 = ADVANCED_FACE ( 'NONE', ( #284 ), #286, .F. ) ;
#43 = ORIENTED_EDGE ( 'NONE', *, *, #183, .F. ) ;
#44 = ORIENTED_EDGE ( 'NONE', *, *, #84, .F. ) ;
#45 = CC_DESIGN_DATE_AND_TIME_ASSIGNMENT ( #197, #58, ( #195 ) ) ;
#46 = CARTESIAN_POINT ( 'NONE',  ( 0.0000000000000000000, 25.00000000000000000, -25.00000000000000000 ) ) ;
#47 = UNCERTAINTY_MEASURE_WITH_UNIT (LENGTH_MEASURE( 1.000000000000000100E-005 ), #229, 'distance_accuracy_value', 'NONE');
#48 = DIRECTION ( 'NONE',  ( 0.7071067811865475700, 0.0000000000000000000, 0.7071067811865474600 ) ) ;
#49 = EDGE_CURVE ( 'NONE', #251, #200, #196, .T. ) ;
#50 = DIRECTION ( 'NONE',  ( 0.0000000000000000000, 0.0000000000000000000, -1.000000000000000000 ) ) ;
#51 = LINE ( 'NONE', #22, #122 ) ;
#52 = ORIENTED_EDGE ( 'NONE', *, *, #205, .T. ) ;
#53 = AXIS2_PLACEMENT_3D ( 'NONE', #218, #144, #170 ) ;
#54 = VECTOR ( 'NONE', #140, 1000.000000000000000 ) ;
#55 = PERSON_AND_ORGANIZATION_ROLE ( 'classification_officer' ) ;
#56 = CARTESIAN_POINT ( 'NONE',  ( 24.99999999999999300, 0.0000000000000000000, -25.00000000000000000 ) ) ;
#57 = EDGE_CURVE ( 'NONE', #288, #282, #31, .T. ) ;
#58 = DATE_TIME_ROLE ( 'creation_date' ) ;
#59 = DIRECTION ( 'NONE',  ( 0.7071067811865474600, 0.0000000000000000000, 0.7071067811865474600 ) ) ;
#60 = CC_DESIGN_APPROVAL ( #30, ( #195 ) ) ;
#61 = LINE ( 'NONE', #64, #54 ) ;
#62 = EDGE_CURVE ( 'NONE', #77, #278, #240, .T. ) ;
#63 = VERTEX_POINT ( 'NONE', #262 ) ;
#64 = CARTESIAN_POINT ( 'NONE',  ( 0.0000000000000000000, 25.00000000000000000, 0.0000000000000000000 ) ) ;
#65 = DIRECTION ( 'NONE',  ( -0.7071067811865474600, -0.0000000000000000000, -0.7071067811865474600 ) ) ;
#66 = ORGANIZATION ( 'UNSPECIFIED', 'UNSPECIFIED', '' ) ;
#67 = CARTESIAN_POINT ( 'NONE',  ( 25.00000000000000700, 25.00000000000000000, 0.0000000000000000000 ) ) ;
#68 = APPROVAL_DATE_TIME ( #130, #245 ) ;
#69 = CARTESIAN_POINT ( 'NONE',  ( 0.0000000000000000000, 25.00000000000000000, 0.0000000000000000000 ) ) ;
#70 = DIRECTION ( 'NONE',  ( -0.0000000000000000000, -1.000000000000000000, -0.0000000000000000000 ) ) ;
#71 = CC_DESIGN_PERSON_AND_ORGANIZATION_ASSIGNMENT ( #187, #305, ( #38 ) ) ;
#72 = CARTESIAN_POINT ( 'NONE',  ( 0.0000000000000000000, 0.0000000000000000000, -25.00000000000000000 ) ) ;
#73 = CALENDAR_DATE ( 2017, 1, 2 ) ;
#74 = DIRECTION ( 'NONE',  ( -0.0000000000000000000, -0.0000000000000000000, 1.000000000000000000 ) ) ;
#75 = ORIENTED_EDGE ( 'NONE', *, *, #217, .T. ) ;
#76 = PLANE ( 'NONE',  #320 ) ;
#77 = VERTEX_POINT ( 'NONE', #69 ) ;
#78 = EDGE_CURVE ( 'NONE', #77, #63, #61, .T. ) ;
#79 = PERSON_AND_ORGANIZATION ( #7, #66 ) ;
#80 = VECTOR ( 'NONE', #65, 1000.000000000000100 ) ;
#81 = APPROVAL ( #303, 'UNSPECIFIED' ) ;
#82 = APPROVAL_PERSON_ORGANIZATION ( #21, #81, #255 ) ;
#83 = ORIENTED_EDGE ( 'NONE', *, *, #270, .T. ) ;
#84 = EDGE_CURVE ( 'NONE', #251, #282, #309, .T. ) ;
#85 = DIRECTION ( 'NONE',  ( 0.0000000000000000000, -1.000000000000000000, 0.0000000000000000000 ) ) ;
#86 = DIRECTION ( 'NONE',  ( 0.0000000000000000000, 0.0000000000000000000, 1.000000000000000000 ) ) ;
#87 = CARTESIAN_POINT ( 'NONE',  ( 0.0000000000000000000, 0.0000000000000000000, 0.0000000000000000000 ) ) ;
#88 = CARTESIAN_POINT ( 'NONE',  ( 24.99999999999999300, 0.0000000000000000000, -25.00000000000000000 ) ) ;
#89 = ORIENTED_EDGE ( 'NONE', *, *, #62, .F. ) ;
#90 = EDGE_LOOP ( 'NONE', ( #160, #268, #222, #52 ) ) ;
#91 = AXIS2_PLACEMENT_3D ( 'NONE', #248, #269, #59 ) ;
#92 = LOCAL_TIME ( 8, 31, 24.00000000000000000, #127 ) ;
#93 = COORDINATED_UNIVERSAL_TIME_OFFSET ( 5, 0, .BEHIND. ) ;
#94 = VECTOR ( 'NONE', #260, 1000.000000000000000 ) ;
#95 = CARTESIAN_POINT ( 'NONE',  ( 0.0000000000000000000, 25.00000000000000000, -25.00000000000000000 ) ) ;
#96 = VERTEX_POINT ( 'NONE', #244 ) ;
#97 = DIRECTION ( 'NONE',  ( -1.000000000000000000, -0.0000000000000000000, -0.0000000000000000000 ) ) ;
#98 = ADVANCED_FACE ( 'NONE', ( #126 ), #264, .F. ) ;
#99 = EDGE_LOOP ( 'NONE', ( #157, #230, #89, #234 ) ) ;
#100 = PLANE ( 'NONE',  #18 ) ;
#101 = CARTESIAN_POINT ( 'NONE',  ( 0.0000000000000000000, 25.00000000000000000, 0.0000000000000000000 ) ) ;
#102 = DIRECTION ( 'NONE',  ( -0.0000000000000000000, -1.000000000000000000, -0.0000000000000000000 ) ) ;
#103 = CC_DESIGN_APPROVAL ( #245, ( #132 ) ) ;
#104 = CARTESIAN_POINT ( 'NONE',  ( 25.00000000000000700, 25.00000000000000000, 0.0000000000000000000 ) ) ;
#105 = CARTESIAN_POINT ( 'NONE',  ( 0.0000000000000000000, 25.00000000000000000, -25.00000000000000000 ) ) ;
#106 = CARTESIAN_POINT ( 'NONE',  ( 24.99999999999999300, 25.00000000000000000, -25.00000000000000000 ) ) ;
#107 = ORIENTED_EDGE ( 'NONE', *, *, #198, .F. ) ;
#108 = CC_DESIGN_PERSON_AND_ORGANIZATION_ASSIGNMENT ( #11, #55, ( #132 ) ) ;
#109 = APPROVAL_ROLE ( '' ) ;
#110 = MECHANICAL_CONTEXT ( 'NONE', #33, 'mechanical' ) ;
#111 = CARTESIAN_POINT ( 'NONE',  ( 0.0000000000000000000, 25.00000000000000000, 0.0000000000000000000 ) ) ;
#112 = ORIENTED_EDGE ( 'NONE', *, *, #217, .F. ) ;
#113 = PERSON_AND_ORGANIZATION_ROLE ( 'creator' ) ;
#114 = LINE ( 'NONE', #139, #80 ) ;
#115 = DIRECTION ( 'NONE',  ( 5.551115123125782700E-016, 0.0000000000000000000, 1.000000000000000000 ) ) ;
#116 = CARTESIAN_POINT ( 'NONE',  ( 24.99999999999999300, 25.00000000000000000, -25.00000000000000000 ) ) ;
#117 = CC_DESIGN_PERSON_AND_ORGANIZATION_ASSIGNMENT ( #257, #204, ( #311 ) ) ;
#118 = ORIENTED_EDGE ( 'NONE', *, *, #49, .T. ) ;
#119 = DIRECTION ( 'NONE',  ( -1.000000000000000000, -0.0000000000000000000, -0.0000000000000000000 ) ) ;
#120 = CC_DESIGN_SECURITY_CLASSIFICATION ( #132, ( #38 ) ) ;
#121 = CARTESIAN_POINT ( 'NONE',  ( 25.00000000000000000, 0.0000000000000000000, 0.0000000000000000000 ) ) ;
#122 = VECTOR ( 'NONE', #74, 1000.000000000000000 ) ;
#123 = EDGE_LOOP ( 'NONE', ( #83, #285, #128 ) ) ;
#124 = VECTOR ( 'NONE', #155, 1000.000000000000100 ) ;
#125 = LINE ( 'NONE', #104, #253 ) ;
#126 = FACE_OUTER_BOUND ( 'NONE', #90, .T. ) ;
#127 = COORDINATED_UNIVERSAL_TIME_OFFSET ( 5, 0, .BEHIND. ) ;
#128 = ORIENTED_EDGE ( 'NONE', *, *, #276, .T. ) ;
#129 = CARTESIAN_POINT ( 'NONE',  ( 25.00000000000000000, 25.00000000000000000, 0.0000000000000000000 ) ) ;
#130 = DATE_AND_TIME ( #199, #5 ) ;
#131 = CARTESIAN_POINT ( 'NONE',  ( 0.0000000000000000000, 25.00000000000000000, -25.00000000000000000 ) ) ;
#132 = SECURITY_CLASSIFICATION ( '', '', #201 ) ;
#133 = APPROVAL_PERSON_ORGANIZATION ( #300, #30, #156 ) ;
#134 = CALENDAR_DATE ( 2017, 1, 2 ) ;
#135 = DATE_AND_TIME ( #138, #221 ) ;
#136 = DIRECTION ( 'NONE',  ( -1.000000000000000000, 0.0000000000000000000, 5.551115123125782700E-016 ) ) ;
#137 = CARTESIAN_POINT ( 'NONE',  ( 25.00000000000000700, 25.00000000000000000, 0.0000000000000000000 ) ) ;
#138 = CALENDAR_DATE ( 2017, 1, 2 ) ;
#139 = CARTESIAN_POINT ( 'NONE',  ( 0.0000000000000000000, 0.0000000000000000000, -25.00000000000000000 ) ) ;
#140 = DIRECTION ( 'NONE',  ( -0.0000000000000000000, -1.000000000000000000, -0.0000000000000000000 ) ) ;
#141 = CARTESIAN_POINT ( 'NONE',  ( 0.0000000000000000000, 25.00000000000000000, -25.00000000000000000 ) ) ;
#142 = COORDINATED_UNIVERSAL_TIME_OFFSET ( 5, 0, .BEHIND. ) ;
#143 = AXIS2_PLACEMENT_3D ( 'NONE', #56, #85, #306 ) ;
#144 = DIRECTION ( 'NONE',  ( 0.0000000000000000000, -1.000000000000000000, 0.0000000000000000000 ) ) ;
#145 = VECTOR ( 'NONE', #294, 1000.000000000000000 ) ;
#146 = PLANE ( 'NONE',  #150 ) ;
#147 = LINE ( 'NONE', #319, #176 ) ;
#148 = ORIENTED_EDGE ( 'NONE', *, *, #162, .F. ) ;
#149 = ORIENTED_EDGE ( 'NONE', *, *, #84, .T. ) ;
#150 = AXIS2_PLACEMENT_3D ( 'NONE', #173, #25, #50 ) ;
#151 = FACE_OUTER_BOUND ( 'NONE', #3, .T. ) ;
#152 = PERSON_AND_ORGANIZATION ( #7, #66 ) ;
#153 = AXIS2_PLACEMENT_3D ( 'NONE', #212, #263, #317 ) ;
#154 = COORDINATED_UNIVERSAL_TIME_OFFSET ( 5, 0, .BEHIND. ) ;
#155 = DIRECTION ( 'NONE',  ( -0.7071067811865474600, -0.0000000000000000000, -0.7071067811865474600 ) ) ;
#156 = APPROVAL_ROLE ( '' ) ;
#157 = ORIENTED_EDGE ( 'NONE', *, *, #162, .T. ) ;
#158 = DIRECTION ( 'NONE',  ( 1.000000000000000000, 0.0000000000000000000, 0.0000000000000000000 ) ) ;
#159 = EDGE_CURVE ( 'NONE', #174, #288, #14, .T. ) ;
#160 = ORIENTED_EDGE ( 'NONE', *, *, #231, .T. ) ;
#161 = AXIS2_PLACEMENT_3D ( 'NONE', #87, #86, #158 ) ;
#162 = EDGE_CURVE ( 'NONE', #63, #307, #302, .T. ) ;
#163 = VECTOR ( 'NONE', #70, 1000.000000000000000 ) ;
#164 = DIRECTION ( 'NONE',  ( 1.000000000000000000, 0.0000000000000000000, 0.0000000000000000000 ) ) ;
#165 = PRODUCT_DEFINITION_SHAPE ( 'NONE', 'NONE',  #195 ) ;
#166 = DIRECTION ( 'NONE',  ( 0.0000000000000000000, 0.0000000000000000000, 1.000000000000000000 ) ) ;
#167 = ADVANCED_FACE ( 'NONE', ( #208 ), #100, .F. ) ;
#168 = ADVANCED_FACE ( 'NONE', ( #312 ), #186, .T. ) ;
#169 = CARTESIAN_POINT ( 'NONE',  ( 0.0000000000000000000, 25.00000000000000000, -25.00000000000000000 ) ) ;
#170 = DIRECTION ( 'NONE',  ( 0.0000000000000000000, -0.0000000000000000000, -1.000000000000000000 ) ) ;
#171 = CC_DESIGN_PERSON_AND_ORGANIZATION_ASSIGNMENT ( #152, #178, ( #195 ) ) ;
#172 = DIRECTION ( 'NONE',  ( -5.551115123125782700E-016, 0.0000000000000000000, -1.000000000000000000 ) ) ;
#173 = CARTESIAN_POINT ( 'NONE',  ( 0.0000000000000000000, 25.00000000000000000, 0.0000000000000000000 ) ) ;
#174 = VERTEX_POINT ( 'NONE', #67 ) ;
#175 = EDGE_LOOP ( 'NONE', ( #272, #301, #34, #149 ) ) ;
#176 = VECTOR ( 'NONE', #295, 1000.000000000000000 ) ;
#177 = DIRECTION ( 'NONE',  ( -0.0000000000000000000, -1.000000000000000000, -0.0000000000000000000 ) ) ;
#178 = PERSON_AND_ORGANIZATION_ROLE ( 'creator' ) ;
#179 = ORIENTED_EDGE ( 'NONE', *, *, #219, .F. ) ;
#180 =( NAMED_UNIT ( * ) SI_UNIT ( $, .STERADIAN. ) SOLID_ANGLE_UNIT ( ) );
#181 = CARTESIAN_POINT ( 'NONE',  ( 24.99999999999999300, 25.00000000000000000, -25.00000000000000000 ) ) ;
#182 = ORIENTED_EDGE ( 'NONE', *, *, #276, .F. ) ;
#183 = EDGE_CURVE ( 'NONE', #194, #12, #313, .T. ) ;
#184 = CARTESIAN_POINT ( 'NONE',  ( 25.00000000000000700, 25.00000000000000000, 0.0000000000000000000 ) ) ;
#185 = VECTOR ( 'NONE', #281, 1000.000000000000000 ) ;
#186 = PLANE ( 'NONE',  #153 ) ;
#187 = PERSON_AND_ORGANIZATION ( #7, #66 ) ;
#188 = CARTESIAN_POINT ( 'NONE',  ( 0.0000000000000000000, 0.0000000000000000000, -25.00000000000000000 ) ) ;
#189 = DIRECTION ( 'NONE',  ( -5.551115123125782700E-016, 0.0000000000000000000, -1.000000000000000000 ) ) ;
#190 = CALENDAR_DATE ( 2017, 1, 2 ) ;
#191 = ORIENTED_EDGE ( 'NONE', *, *, #57, .T. ) ;
#192 = PLANE ( 'NONE',  #53 ) ;
#193 = VECTOR ( 'NONE', #48, 1000.000000000000000 ) ;
#194 = VERTEX_POINT ( 'NONE', #46 ) ;
#195 = PRODUCT_DEFINITION ( 'UNKNOWN', '', #38, #37 ) ;
#196 = LINE ( 'NONE', #238, #8 ) ;
#197 = DATE_AND_TIME ( #134, #92 ) ;
#198 = EDGE_CURVE ( 'NONE', #282, #96, #220, .T. ) ;
#199 = CALENDAR_DATE ( 2017, 1, 2 ) ;
#200 = VERTEX_POINT ( 'NONE', #105 ) ;
#201 = SECURITY_CLASSIFICATION_LEVEL ( 'unclassified' ) ;
#202 = APPLICATION_PROTOCOL_DEFINITION ( 'international standard', 'config_control_design', 1994, #203 ) ;
#203 = APPLICATION_CONTEXT ( 'configuration controlled 3d designs of mechanical parts and assemblies' ) ;
#204 = PERSON_AND_ORGANIZATION_ROLE ( 'design_owner' ) ;
#205 = EDGE_CURVE ( 'NONE', #200, #96, #6, .T. ) ;
#206 = VECTOR ( 'NONE', #189, 1000.000000000000000 ) ;
#207 = COORDINATED_UNIVERSAL_TIME_OFFSET ( 5, 0, .BEHIND. ) ;
#208 = FACE_OUTER_BOUND ( 'NONE', #175, .T. ) ;
#209 = LINE ( 'NONE', #1, #40 ) ;
#210 = ORIENTED_EDGE ( 'NONE', *, *, #231, .F. ) ;
#211 = ADVANCED_FACE ( 'NONE', ( #2 ), #192, .F. ) ;
#212 = CARTESIAN_POINT ( 'NONE',  ( 0.0000000000000000000, 0.0000000000000000000, 0.0000000000000000000 ) ) ;
#213 = PLANE ( 'NONE',  #261 ) ;
#214 = VECTOR ( 'NONE', #164, 1000.000000000000000 ) ;
#215 = APPROVAL_DATE_TIME ( #321, #30 ) ;
#216 = ORIENTED_EDGE ( 'NONE', *, *, #13, .F. ) ;
#217 = EDGE_CURVE ( 'NONE', #12, #63, #51, .T. ) ;
#218 = CARTESIAN_POINT ( 'NONE',  ( 0.0000000000000000000, 25.00000000000000000, 0.0000000000000000000 ) ) ;
#219 = EDGE_CURVE ( 'NONE', #174, #251, #125, .T. ) ;
#220 = LINE ( 'NONE', #72, #27 ) ;
#221 = LOCAL_TIME ( 8, 31, 24.00000000000000000, #154 ) ;
#222 = ORIENTED_EDGE ( 'NONE', *, *, #233, .F. ) ;
#223 = CC_DESIGN_PERSON_AND_ORGANIZATION_ASSIGNMENT ( #293, #113, ( #38 ) ) ;
#224 = MANIFOLD_SOLID_BREP ( 'Extrude2', #23 ) ;
#225 = FACE_OUTER_BOUND ( 'NONE', #228, .T. ) ;
#226 = APPROVAL_STATUS ( 'not_yet_approved' ) ;
#227 = FACE_OUTER_BOUND ( 'NONE', #16, .T. ) ;
#228 = EDGE_LOOP ( 'NONE', ( #280, #118, #299 ) ) ;
#229 =( LENGTH_UNIT ( ) NAMED_UNIT ( * ) SI_UNIT ( .MILLI., .METRE. ) );
#230 = ORIENTED_EDGE ( 'NONE', *, *, #314, .F. ) ;
#231 = EDGE_CURVE ( 'NONE', #96, #288, #283, .T. ) ;
#232 = FACE_OUTER_BOUND ( 'NONE', #28, .T. ) ;
#233 = EDGE_CURVE ( 'NONE', #200, #174, #147, .T. ) ;
#234 = ORIENTED_EDGE ( 'NONE', *, *, #78, .T. ) ;
#235 = ORIENTED_EDGE ( 'NONE', *, *, #159, .T. ) ;
#236 = CARTESIAN_POINT ( 'NONE',  ( 0.0000000000000000000, 0.0000000000000000000, 0.0000000000000000000 ) ) ;
#237 = EDGE_LOOP ( 'NONE', ( #112, #216, #148 ) ) ;
#238 = CARTESIAN_POINT ( 'NONE',  ( 0.0000000000000000000, 25.00000000000000000, -25.00000000000000000 ) ) ;
#239 = LINE ( 'NONE', #131, #124 ) ;
#240 = LINE ( 'NONE', #101, #214 ) ;
#241 = APPROVAL_PERSON_ORGANIZATION ( #79, #245, #109 ) ;
#242 = ORIENTED_EDGE ( 'NONE', *, *, #183, .T. ) ;
#243 = ADVANCED_FACE ( 'NONE', ( #36 ), #146, .F. ) ;
#244 = CARTESIAN_POINT ( 'NONE',  ( 0.0000000000000000000, 0.0000000000000000000, -25.00000000000000000 ) ) ;
#245 = APPROVAL ( #226, 'UNSPECIFIED' ) ;
#246 = VECTOR ( 'NONE', #102, 1000.000000000000000 ) ;
#247 = DIRECTION ( 'NONE',  ( -0.0000000000000000000, -1.000000000000000000, -0.0000000000000000000 ) ) ;
#248 = CARTESIAN_POINT ( 'NONE',  ( 0.0000000000000000000, 25.00000000000000000, -25.00000000000000000 ) ) ;
#249 = ORIENTED_EDGE ( 'NONE', *, *, #270, .F. ) ;
#250 = ORIENTED_EDGE ( 'NONE', *, *, #13, .T. ) ;
#251 = VERTEX_POINT ( 'NONE', #106 ) ;
#252 =( GEOMETRIC_REPRESENTATION_CONTEXT ( 3 ) GLOBAL_UNCERTAINTY_ASSIGNED_CONTEXT ( ( #47 ) ) GLOBAL_UNIT_ASSIGNED_CONTEXT ( ( #229, #254, #180 ) ) REPRESENTATION_CONTEXT ( 'NONE', 'WORKASPACE' ) );
#253 = VECTOR ( 'NONE', #172, 1000.000000000000000 ) ;
#254 =( NAMED_UNIT ( * ) PLANE_ANGLE_UNIT ( ) SI_UNIT ( $, .RADIAN. ) );
#255 = APPROVAL_ROLE ( '' ) ;
#256 = LINE ( 'NONE', #111, #185 ) ;
#257 = PERSON_AND_ORGANIZATION ( #7, #66 ) ;
#258 = LOCAL_TIME ( 8, 31, 24.00000000000000000, #207 ) ;
#259 = DIRECTION ( 'NONE',  ( 0.0000000000000000000, -1.000000000000000000, 0.0000000000000000000 ) ) ;
#260 = DIRECTION ( 'NONE',  ( 1.000000000000000000, 0.0000000000000000000, 0.0000000000000000000 ) ) ;
#261 = AXIS2_PLACEMENT_3D ( 'NONE', #184, #136, #115 ) ;
#262 = CARTESIAN_POINT ( 'NONE',  ( 0.0000000000000000000, 0.0000000000000000000, 0.0000000000000000000 ) ) ;
#263 = DIRECTION ( 'NONE',  ( 0.0000000000000000000, -1.000000000000000000, 0.0000000000000000000 ) ) ;
#264 = PLANE ( 'NONE',  #9 ) ;
#265 = ADVANCED_FACE ( 'NONE', ( #151 ), #296, .F. ) ;
#266 = DIRECTION ( 'NONE',  ( -1.000000000000000000, 0.0000000000000000000, -0.0000000000000000000 ) ) ;
#267 = APPROVAL_DATE_TIME ( #273, #81 ) ;
#268 = ORIENTED_EDGE ( 'NONE', *, *, #159, .F. ) ;
#269 = DIRECTION ( 'NONE',  ( -0.7071067811865475700, 0.0000000000000000000, 0.7071067811865475700 ) ) ;
#270 = EDGE_CURVE ( 'NONE', #194, #77, #256, .T. ) ;
#271 = SHAPE_DEFINITION_REPRESENTATION ( #165, #304 ) ;
#272 = ORIENTED_EDGE ( 'NONE', *, *, #198, .T. ) ;
#273 = DATE_AND_TIME ( #73, #10 ) ;
#274 = CC_DESIGN_APPROVAL ( #81, ( #38 ) ) ;
#275 = APPROVAL_STATUS ( 'not_yet_approved' ) ;
#276 = EDGE_CURVE ( 'NONE', #278, #194, #239, .T. ) ;
#277 = DATE_TIME_ROLE ( 'classification_date' ) ;
#278 = VERTEX_POINT ( 'NONE', #129 ) ;
#279 = AXIS2_PLACEMENT_3D ( 'NONE', #290, #19, #266 ) ;
#280 = ORIENTED_EDGE ( 'NONE', *, *, #219, .T. ) ;
#281 = DIRECTION ( 'NONE',  ( -0.0000000000000000000, -0.0000000000000000000, 1.000000000000000000 ) ) ;
#282 = VERTEX_POINT ( 'NONE', #88 ) ;
#283 = LINE ( 'NONE', #318, #193 ) ;
#284 = FACE_OUTER_BOUND ( 'NONE', #99, .T. ) ;
#285 = ORIENTED_EDGE ( 'NONE', *, *, #62, .T. ) ;
#286 = PLANE ( 'NONE',  #279 ) ;
#287 = VECTOR ( 'NONE', #247, 1000.000000000000000 ) ;
#288 = VERTEX_POINT ( 'NONE', #310 ) ;
#289 = DIRECTION ( 'NONE',  ( 0.7071067811865474600, 0.0000000000000000000, -0.7071067811865476800 ) ) ;
#290 = CARTESIAN_POINT ( 'NONE',  ( 0.0000000000000000000, 25.00000000000000000, 0.0000000000000000000 ) ) ;
#291 = ADVANCED_FACE ( 'NONE', ( #225 ), #76, .F. ) ;
#292 = PRODUCT_RELATED_PRODUCT_CATEGORY ( 'detail', '', ( #311 ) ) ;
#293 = PERSON_AND_ORGANIZATION ( #7, #66 ) ;
#294 = DIRECTION ( 'NONE',  ( -0.0000000000000000000, -1.000000000000000000, -0.0000000000000000000 ) ) ;
#295 = DIRECTION ( 'NONE',  ( 0.7071067811865475700, 0.0000000000000000000, 0.7071067811865474600 ) ) ;
#296 = PLANE ( 'NONE',  #91 ) ;
#297 = ORIENTED_EDGE ( 'NONE', *, *, #78, .F. ) ;
#298 = CLOSED_SHELL ( 'NONE', ( #243, #42, #265, #211, #168 ) ) ;
#299 = ORIENTED_EDGE ( 'NONE', *, *, #233, .T. ) ;
#300 = PERSON_AND_ORGANIZATION ( #7, #66 ) ;
#301 = ORIENTED_EDGE ( 'NONE', *, *, #205, .F. ) ;
#302 = LINE ( 'NONE', #236, #94 ) ;
#303 = APPROVAL_STATUS ( 'not_yet_approved' ) ;
#304 = ADVANCED_BREP_SHAPE_REPRESENTATION ( 'Web Model 68551', ( #41, #224, #161 ), #252 ) ;
#305 = PERSON_AND_ORGANIZATION_ROLE ( 'design_supplier' ) ;
#306 = DIRECTION ( 'NONE',  ( 0.0000000000000000000, 0.0000000000000000000, -1.000000000000000000 ) ) ;
#307 = VERTEX_POINT ( 'NONE', #121 ) ;
#308 = PLANE ( 'NONE',  #143 ) ;
#309 = LINE ( 'NONE', #116, #163 ) ;
#310 = CARTESIAN_POINT ( 'NONE',  ( 25.00000000000000700, 0.0000000000000000000, 0.0000000000000000000 ) ) ;
#311 = PRODUCT ( 'Web Model 68551', 'Web Model 68551', '', ( #110 ) ) ;
#312 = FACE_OUTER_BOUND ( 'NONE', #237, .T. ) ;
#313 = LINE ( 'NONE', #24, #287 ) ;
#314 = EDGE_CURVE ( 'NONE', #278, #307, #209, .T. ) ;
#315 = ADVANCED_FACE ( 'NONE', ( #232 ), #308, .T. ) ;
#316 = CARTESIAN_POINT ( 'NONE',  ( 25.00000000000000700, 0.0000000000000000000, 0.0000000000000000000 ) ) ;
#317 = DIRECTION ( 'NONE',  ( 0.0000000000000000000, -0.0000000000000000000, -1.000000000000000000 ) ) ;
#318 = CARTESIAN_POINT ( 'NONE',  ( 0.0000000000000000000, 0.0000000000000000000, -25.00000000000000000 ) ) ;
#319 = CARTESIAN_POINT ( 'NONE',  ( 0.0000000000000000000, 25.00000000000000000, -25.00000000000000000 ) ) ;
#320 = AXIS2_PLACEMENT_3D ( 'NONE', #181, #259, #32 ) ;
#321 = DATE_AND_TIME ( #190, #258 ) ;
ENDSEC;
END-ISO-10303-21;
