ISO-10303-21;
HEADER;
FILE_DESCRIPTION (( 'STEP AP214' ),
    '1' );
FILE_NAME ('3235-E0W.STEP',
    '2009-12-21T16:54:54',
    ( ' ' ),
    ( ' ' ),
    'SwSTEP 2.0',
    'SolidWorks 2009',
    '' );
FILE_SCHEMA (( 'AUTOMOTIVE_DESIGN' ));
ENDSEC;

DATA;
#1 = APPLICATION_CONTEXT ( 'automotive_design' ) ;
#2 = APPLICATION_PROTOCOL_DEFINITION ( 'draft international standard', 'automotive_design', 1998, #1 ) ;
#3 = PRODUCT_CONTEXT ( 'NONE', #1, 'mechanical' ) ;
#4 = PRODUCT_DEFINITION_FORMATION_WITH_SPECIFIED_SOURCE ( 'ANY', '', #12, .NOT_KNOWN. ) ;
#5 = PRODUCT_DEFINITION ( 'UNKNOWN', '', #4, #8 ) ;
#6 = APPLICATION_PROTOCOL_DEFINITION ( 'draft international standard', 'automotive_design', 1998, #11 ) ;
#7 = PRODUCT_DEFINITION_SHAPE ( 'NONE', 'NONE',  #5 ) ;
#8 = PRODUCT_DEFINITION_CONTEXT ( 'detailed design', #11, 'design' ) ;
#9 = PRODUCT_RELATED_PRODUCT_CATEGORY ( 'part', '', ( #12 ) ) ;
#10 = SHAPE_DEFINITION_REPRESENTATION ( #7, #209 ) ;
#11 = APPLICATION_CONTEXT ( 'automotive_design' ) ;
#12 = PRODUCT ( '3235-E0W', '3235-E0W', '', ( #3 ) ) ;
#13 = DIRECTION ( 'NONE',  ( -0.0000000000000000000, -0.0000000000000000000, 1.000000000000000000 ) ) ;
#14 = DIRECTION ( 'NONE',  ( 1.000000000000000000, 0.0000000000000000000, 0.0000000000000000000 ) ) ;
#15 = ADVANCED_FACE ( 'NONE', ( #55 ), #71, .T. ) ;
#16 = VERTEX_POINT ( 'NONE', #91 ) ;
#17 = ORIENTED_EDGE ( 'NONE', *, *, #48, .F. ) ;
#18 = ORIENTED_EDGE ( 'NONE', *, *, #19, .T. ) ;
#19 = EDGE_CURVE ( 'NONE', #53, #16, #86, .T. ) ;
#20 = ORIENTED_EDGE ( 'NONE', *, *, #41, .T. ) ;
#21 = EDGE_LOOP ( 'NONE', ( #20, #18, #17, #38, #49 ) ) ;
#22 = VERTEX_POINT ( 'NONE', #85 ) ;
#23 =( NAMED_UNIT ( * ) PLANE_ANGLE_UNIT ( ) SI_UNIT ( $, .RADIAN. ) );
#24 =( LENGTH_UNIT ( ) NAMED_UNIT ( * ) SI_UNIT ( .MILLI., .METRE. ) );
#25 = MECHANICAL_DESIGN_GEOMETRIC_PRESENTATION_REPRESENTATION (  '', ( #27 ), #72 ) ;
#26 = PRESENTATION_LAYER_ASSIGNMENT (  '', '', ( #27 ) ) ;
#27 = STYLED_ITEM ( 'NONE', ( #28 ), #15 ) ;
#28 = PRESENTATION_STYLE_ASSIGNMENT (( #29 ) ) ;
#29 = SURFACE_STYLE_USAGE ( .BOTH. , #30 ) ;
#30 = SURFACE_SIDE_STYLE ('',( #31 ) ) ;
#31 = SURFACE_STYLE_FILL_AREA ( #32 ) ;
#32 = FILL_AREA_STYLE ('',( #33 ) ) ;
#33 = FILL_AREA_STYLE_COLOUR ( '', #34 ) ;
#34 = COLOUR_RGB ( '',0.9568627450980391500, 0.9490196078431372100, 0.9607843137254902200 ) ;
#35 = ORIENTED_EDGE ( 'NONE', *, *, #36, .T. ) ;
#36 = EDGE_CURVE ( 'NONE', #46, #39, #95, .T. ) ;
#37 = ORIENTED_EDGE ( 'NONE', *, *, #40, .T. ) ;
#38 = ORIENTED_EDGE ( 'NONE', *, *, #40, .F. ) ;
#39 = VERTEX_POINT ( 'NONE', #84 ) ;
#40 = EDGE_CURVE ( 'NONE', #39, #47, #92, .T. ) ;
#41 = EDGE_CURVE ( 'NONE', #78, #53, #111, .T. ) ;
#42 = EDGE_CURVE ( 'NONE', #47, #22, #131, .T. ) ;
#43 = ORIENTED_EDGE ( 'NONE', *, *, #42, .T. ) ;
#44 = ADVANCED_FACE ( 'NONE', ( #132 ), #102, .T. ) ;
#45 = EDGE_LOOP ( 'NONE', ( #80, #81, #75, #83 ) ) ;
#46 = VERTEX_POINT ( 'NONE', #138 ) ;
#47 = VERTEX_POINT ( 'NONE', #140 ) ;
#48 = EDGE_CURVE ( 'NONE', #47, #16, #167, .T. ) ;
#49 = ORIENTED_EDGE ( 'NONE', *, *, #79, .F. ) ;
#50 = EDGE_LOOP ( 'NONE', ( #67, #35, #37, #43 ) ) ;
#51 = ADVANCED_FACE ( 'NONE', ( #141 ), #163, .T. ) ;
#52 = EDGE_CURVE ( 'NONE', #46, #22, #162, .T. ) ;
#53 = VERTEX_POINT ( 'NONE', #152 ) ;
#54 = MANIFOLD_SOLID_BREP ( 'NONE', #63 ) ;
#55 = FACE_OUTER_BOUND ( 'NONE', #21, .T. ) ;
#56 = ORIENTED_EDGE ( 'NONE', *, *, #41, .F. ) ;
#57 = ORIENTED_EDGE ( 'NONE', *, *, #79, .T. ) ;
#58 = ORIENTED_EDGE ( 'NONE', *, *, #36, .F. ) ;
#59 = ORIENTED_EDGE ( 'NONE', *, *, #66, .F. ) ;
#60 = ADVANCED_FACE ( 'NONE', ( #184 ), #259, .F. ) ;
#61 = EDGE_LOOP ( 'NONE', ( #56, #59 ) ) ;
#62 = ORIENTED_EDGE ( 'NONE', *, *, #82, .F. ) ;
#63 = CLOSED_SHELL ( 'NONE', ( #15, #77, #51, #44, #60 ) ) ;
#64 = ORIENTED_EDGE ( 'NONE', *, *, #19, .F. ) ;
#65 = ORIENTED_EDGE ( 'NONE', *, *, #66, .T. ) ;
#66 = EDGE_CURVE ( 'NONE', #53, #78, #258, .T. ) ;
#67 = ORIENTED_EDGE ( 'NONE', *, *, #52, .F. ) ;
#68 = CARTESIAN_POINT ( 'NONE',  ( 0.0000000000000000000, 0.0000000000000000000, 4.308132045400366600 ) ) ;
#69 = AXIS2_PLACEMENT_3D ( 'NONE', #68, #13, #14 ) ;
#70 =( NAMED_UNIT ( * ) PLANE_ANGLE_UNIT ( ) SI_UNIT ( $, .RADIAN. ) );
#71 = CYLINDRICAL_SURFACE ( 'NONE', #69, 6.350000000000001400 ) ;
#72 =( GEOMETRIC_REPRESENTATION_CONTEXT ( 3 ) GLOBAL_UNCERTAINTY_ASSIGNED_CONTEXT ( ( #73 ) ) GLOBAL_UNIT_ASSIGNED_CONTEXT ( ( #24, #23, #74 ) ) REPRESENTATION_CONTEXT ( 'NONE', 'WORKASPACE' ) );
#73 = UNCERTAINTY_MEASURE_WITH_UNIT (LENGTH_MEASURE( 1.000000000000000100E-005 ), #24, 'distance_accuracy_value', 'NONE');
#74 =( NAMED_UNIT ( * ) SI_UNIT ( $, .STERADIAN. ) SOLID_ANGLE_UNIT ( ) );
#75 = ORIENTED_EDGE ( 'NONE', *, *, #52, .T. ) ;
#76 = EDGE_LOOP ( 'NONE', ( #64, #65, #57, #58, #62 ) ) ;
#77 = ADVANCED_FACE ( 'NONE', ( #248 ), #233, .T. ) ;
#78 = VERTEX_POINT ( 'NONE', #232 ) ;
#79 = EDGE_CURVE ( 'NONE', #78, #39, #227, .T. ) ;
#80 = ORIENTED_EDGE ( 'NONE', *, *, #48, .T. ) ;
#81 = ORIENTED_EDGE ( 'NONE', *, *, #82, .T. ) ;
#82 = EDGE_CURVE ( 'NONE', #16, #46, #223, .T. ) ;
#83 = ORIENTED_EDGE ( 'NONE', *, *, #42, .F. ) ;
#84 = CARTESIAN_POINT ( 'NONE',  ( 6.350000000000003200, 0.0000000000000000000, -0.2002836054520373600 ) ) ;
#85 = CARTESIAN_POINT ( 'NONE',  ( 0.0000000000000000000, 6.306722722185243100E-016, 1.990000000000002200 ) ) ;
#86 = LINE ( 'NONE', #88, #93 ) ;
#87 = DIRECTION ( 'NONE',  ( -0.0000000000000000000, -0.0000000000000000000, 1.000000000000000000 ) ) ;
#88 = CARTESIAN_POINT ( 'NONE',  ( -6.350000000000001400, 7.776250346772097400E-016, 4.308132045400366600 ) ) ;
#89 = DIRECTION ( 'NONE',  ( -0.0000000000000000000, -0.0000000000000000000, 1.000000000000000000 ) ) ;
#90 = CARTESIAN_POINT ( 'NONE',  ( 0.0000000000000000000, 0.0000000000000000000, -0.2002836054520373600 ) ) ;
#91 = CARTESIAN_POINT ( 'NONE',  ( -6.350000000000003200, 7.776250346772099300E-016, -0.2002836054520373600 ) ) ;
#92 = CIRCLE ( 'NONE', #115, 6.350000000000002300 ) ;
#93 = VECTOR ( 'NONE', #87, 1000.000000000000000 ) ;
#94 = AXIS2_PLACEMENT_3D ( 'NONE', #96, #89, #107 ) ;
#95 = CIRCLE ( 'NONE', #94, 6.350000000000002300 ) ;
#96 = CARTESIAN_POINT ( 'NONE',  ( 0.0000000000000000000, 0.0000000000000000000, -0.2002836054520373600 ) ) ;
#97 = DIRECTION ( 'NONE',  ( 1.000000000000000000, 0.0000000000000000000, 0.0000000000000000000 ) ) ;
#98 = DIRECTION ( 'NONE',  ( -0.0000000000000000000, -0.0000000000000000000, 1.000000000000000000 ) ) ;
#99 = CARTESIAN_POINT ( 'NONE',  ( 0.0000000000000000000, 0.0000000000000000000, 4.308132045400366600 ) ) ;
#100 = AXIS2_PLACEMENT_3D ( 'NONE', #99, #98, #97 ) ;
#101 =( NAMED_UNIT ( * ) SI_UNIT ( $, .STERADIAN. ) SOLID_ANGLE_UNIT ( ) );
#102 = CYLINDRICAL_SURFACE ( 'NONE', #100, 6.350000000000001400 ) ;
#103 =( GEOMETRIC_REPRESENTATION_CONTEXT ( 3 ) GLOBAL_UNCERTAINTY_ASSIGNED_CONTEXT ( ( #104 ) ) GLOBAL_UNIT_ASSIGNED_CONTEXT ( ( #117, #106, #105 ) ) REPRESENTATION_CONTEXT ( 'NONE', 'WORKASPACE' ) );
#104 = UNCERTAINTY_MEASURE_WITH_UNIT (LENGTH_MEASURE( 1.000000000000000100E-005 ), #117, 'distance_accuracy_value', 'NONE');
#105 =( NAMED_UNIT ( * ) SI_UNIT ( $, .STERADIAN. ) SOLID_ANGLE_UNIT ( ) );
#106 =( NAMED_UNIT ( * ) PLANE_ANGLE_UNIT ( ) SI_UNIT ( $, .RADIAN. ) );
#107 = DIRECTION ( 'NONE',  ( 1.000000000000000000, 0.0000000000000000000, 0.0000000000000000000 ) ) ;
#108 = DIRECTION ( 'NONE',  ( 1.000000000000000000, 0.0000000000000000000, 0.0000000000000000000 ) ) ;
#109 = DIRECTION ( 'NONE',  ( -0.0000000000000000000, -0.0000000000000000000, 1.000000000000000000 ) ) ;
#110 = AXIS2_PLACEMENT_3D ( 'NONE', #116, #109, #108 ) ;
#111 = CIRCLE ( 'NONE', #110, 6.350000000000000500 ) ;
#112 = CARTESIAN_POINT ( 'NONE',  ( 0.0000000000000000000, 0.0000000000000000000, -8.309999999999998700 ) ) ;
#113 = DIRECTION ( 'NONE',  ( 1.000000000000000000, 0.0000000000000000000, 0.0000000000000000000 ) ) ;
#114 = DIRECTION ( 'NONE',  ( -0.0000000000000000000, -0.0000000000000000000, 1.000000000000000000 ) ) ;
#115 = AXIS2_PLACEMENT_3D ( 'NONE', #90, #114, #113 ) ;
#116 = CARTESIAN_POINT ( 'NONE',  ( 0.0000000000000000000, 0.0000000000000000000, -1.990000000000000400 ) ) ;
#117 =( LENGTH_UNIT ( ) NAMED_UNIT ( * ) SI_UNIT ( .MILLI., .METRE. ) );
#118 = MECHANICAL_DESIGN_GEOMETRIC_PRESENTATION_REPRESENTATION (  '', ( #120 ), #103 ) ;
#119 = PRESENTATION_LAYER_ASSIGNMENT (  '', '', ( #120 ) ) ;
#120 = STYLED_ITEM ( 'NONE', ( #121 ), #44 ) ;
#121 = PRESENTATION_STYLE_ASSIGNMENT (( #122 ) ) ;
#122 = SURFACE_STYLE_USAGE ( .BOTH. , #123 ) ;
#123 = SURFACE_SIDE_STYLE ('',( #124 ) ) ;
#124 = SURFACE_STYLE_FILL_AREA ( #125 ) ;
#125 = FILL_AREA_STYLE ('',( #126 ) ) ;
#126 = FILL_AREA_STYLE_COLOUR ( '', #127 ) ;
#127 = COLOUR_RGB ( '',0.9568627450980391500, 0.9490196078431372100, 0.9607843137254902200 ) ;
#128 = DIRECTION ( 'NONE',  ( 0.0000000000000000000, 0.0000000000000000000, -1.000000000000000000 ) ) ;
#129 = DIRECTION ( 'NONE',  ( 1.000000000000000000, 0.0000000000000000000, 0.0000000000000000000 ) ) ;
#130 = AXIS2_PLACEMENT_3D ( 'NONE', #112, #129, #128 ) ;
#131 = CIRCLE ( 'NONE', #130, 10.30000000000000100 ) ;
#132 = FACE_OUTER_BOUND ( 'NONE', #76, .T. ) ;
#133 = DIRECTION ( 'NONE',  ( -0.0000000000000000000, -0.0000000000000000000, 1.000000000000000000 ) ) ;
#134 =( LENGTH_UNIT ( ) NAMED_UNIT ( * ) SI_UNIT ( .MILLI., .METRE. ) );
#135 = MECHANICAL_DESIGN_GEOMETRIC_PRESENTATION_REPRESENTATION (  '', ( #172 ), #176 ) ;
#136 = CARTESIAN_POINT ( 'NONE',  ( 0.0000000000000000000, 0.0000000000000000000, -0.2002836054520373600 ) ) ;
#137 = DIRECTION ( 'NONE',  ( 1.000000000000000000, 0.0000000000000000000, 0.0000000000000000000 ) ) ;
#138 = CARTESIAN_POINT ( 'NONE',  ( -7.776250346772100300E-016, -6.350000000000003200, -0.2002836054520377700 ) ) ;
#139 = AXIS2_PLACEMENT_3D ( 'NONE', #136, #133, #137 ) ;
#140 = CARTESIAN_POINT ( 'NONE',  ( 0.0000000000000000000, 6.350000000000003200, -0.2002836054520377700 ) ) ;
#141 = FACE_OUTER_BOUND ( 'NONE', #50, .T. ) ;
#142 =( LENGTH_UNIT ( ) NAMED_UNIT ( * ) SI_UNIT ( .MILLI., .METRE. ) );
#143 = MECHANICAL_DESIGN_GEOMETRIC_PRESENTATION_REPRESENTATION (  '', ( #145 ), #183 ) ;
#144 = PRESENTATION_LAYER_ASSIGNMENT (  '', '', ( #145 ) ) ;
#145 = STYLED_ITEM ( 'NONE', ( #146 ), #54 ) ;
#146 = PRESENTATION_STYLE_ASSIGNMENT (( #147 ) ) ;
#147 = SURFACE_STYLE_USAGE ( .BOTH. , #148 ) ;
#148 = SURFACE_SIDE_STYLE ('',( #149 ) ) ;
#149 = SURFACE_STYLE_FILL_AREA ( #150 ) ;
#150 = FILL_AREA_STYLE ('',( #157 ) ) ;
#151 = COLOUR_RGB ( '',0.7960784313725489700, 0.8235294117647058400, 0.9372549019607843100 ) ;
#152 = CARTESIAN_POINT ( 'NONE',  ( -6.350000000000000500, 7.776250346772096400E-016, -1.990000000000000400 ) ) ;
#153 = DIRECTION ( 'NONE',  ( -1.224606353822377300E-016, -1.000000000000000000, 0.0000000000000000000 ) ) ;
#154 = DIRECTION ( 'NONE',  ( -1.000000000000000000, 1.224606353822377300E-016, 0.0000000000000000000 ) ) ;
#155 = CARTESIAN_POINT ( 'NONE',  ( 0.0000000000000000000, 0.0000000000000000000, -8.309999999999998700 ) ) ;
#156 = AXIS2_PLACEMENT_3D ( 'NONE', #155, #154, #153 ) ;
#157 = FILL_AREA_STYLE_COLOUR ( '', #151 ) ;
#158 = DIRECTION ( 'NONE',  ( 0.0000000000000000000, 1.000000000000000000, 0.0000000000000000000 ) ) ;
#159 = DIRECTION ( 'NONE',  ( -1.000000000000000000, 0.0000000000000000000, 0.0000000000000000000 ) ) ;
#160 = CARTESIAN_POINT ( 'NONE',  ( 0.0000000000000000000, 0.0000000000000000000, -8.309999999999998700 ) ) ;
#161 = AXIS2_PLACEMENT_3D ( 'NONE', #160, #159, #158 ) ;
#162 = CIRCLE ( 'NONE', #156, 10.30000000000000100 ) ;
#163 = SPHERICAL_SURFACE ( 'NONE', #161, 10.30000000000000100 ) ;
#164 = FILL_AREA_STYLE ('',( #165 ) ) ;
#165 = FILL_AREA_STYLE_COLOUR ( '', #166 ) ;
#166 = COLOUR_RGB ( '',0.9568627450980391500, 0.9490196078431372100, 0.9607843137254902200 ) ;
#167 = CIRCLE ( 'NONE', #139, 6.350000000000002300 ) ;
#168 = SURFACE_STYLE_USAGE ( .BOTH. , #169 ) ;
#169 = SURFACE_SIDE_STYLE ('',( #170 ) ) ;
#170 = SURFACE_STYLE_FILL_AREA ( #164 ) ;
#171 = PRESENTATION_LAYER_ASSIGNMENT (  '', '', ( #172 ) ) ;
#172 = STYLED_ITEM ( 'NONE', ( #173 ), #51 ) ;
#173 = PRESENTATION_STYLE_ASSIGNMENT (( #168 ) ) ;
#174 =( NAMED_UNIT ( * ) SI_UNIT ( $, .STERADIAN. ) SOLID_ANGLE_UNIT ( ) );
#175 =( NAMED_UNIT ( * ) PLANE_ANGLE_UNIT ( ) SI_UNIT ( $, .RADIAN. ) );
#176 =( GEOMETRIC_REPRESENTATION_CONTEXT ( 3 ) GLOBAL_UNCERTAINTY_ASSIGNED_CONTEXT ( ( #177 ) ) GLOBAL_UNIT_ASSIGNED_CONTEXT ( ( #134, #175, #174 ) ) REPRESENTATION_CONTEXT ( 'NONE', 'WORKASPACE' ) );
#177 = UNCERTAINTY_MEASURE_WITH_UNIT (LENGTH_MEASURE( 1.000000000000000100E-005 ), #134, 'distance_accuracy_value', 'NONE');
#178 = MECHANICAL_DESIGN_GEOMETRIC_PRESENTATION_REPRESENTATION (  '', ( #212 ), #260 ) ;
#179 = PRESENTATION_LAYER_ASSIGNMENT (  '', '', ( #212 ) ) ;
#180 = PRESENTATION_STYLE_ASSIGNMENT (( #210 ) ) ;
#181 =( LENGTH_UNIT ( ) NAMED_UNIT ( * ) SI_UNIT ( .MILLI., .METRE. ) );
#182 = FILL_AREA_STYLE ('',( #186 ) ) ;
#183 =( GEOMETRIC_REPRESENTATION_CONTEXT ( 3 ) GLOBAL_UNCERTAINTY_ASSIGNED_CONTEXT ( ( #190 ) ) GLOBAL_UNIT_ASSIGNED_CONTEXT ( ( #142, #70, #101 ) ) REPRESENTATION_CONTEXT ( 'NONE', 'WORKASPACE' ) );
#184 = FACE_OUTER_BOUND ( 'NONE', #61, .T. ) ;
#185 = COLOUR_RGB ( '',0.9568627450980391500, 0.9490196078431372100, 0.9607843137254902200 ) ;
#186 = FILL_AREA_STYLE_COLOUR ( '', #185 ) ;
#187 = UNCERTAINTY_MEASURE_WITH_UNIT (LENGTH_MEASURE( 1.000000000000000100E-005 ), #181, 'distance_accuracy_value', 'NONE');
#188 =( NAMED_UNIT ( * ) SI_UNIT ( $, .STERADIAN. ) SOLID_ANGLE_UNIT ( ) );
#189 =( NAMED_UNIT ( * ) PLANE_ANGLE_UNIT ( ) SI_UNIT ( $, .RADIAN. ) );
#190 = UNCERTAINTY_MEASURE_WITH_UNIT (LENGTH_MEASURE( 1.000000000000000100E-005 ), #142, 'distance_accuracy_value', 'NONE');
#191 = SURFACE_STYLE_FILL_AREA ( #182 ) ;
#192 = DIRECTION ( 'NONE',  ( 1.000000000000000000, 0.0000000000000000000, 0.0000000000000000000 ) ) ;
#193 = DIRECTION ( 'NONE',  ( 0.0000000000000000000, 0.0000000000000000000, 1.000000000000000000 ) ) ;
#194 =( GEOMETRIC_REPRESENTATION_CONTEXT ( 3 ) GLOBAL_UNCERTAINTY_ASSIGNED_CONTEXT ( ( #195 ) ) GLOBAL_UNIT_ASSIGNED_CONTEXT ( ( #198, #197, #196 ) ) REPRESENTATION_CONTEXT ( 'NONE', 'WORKASPACE' ) );
#195 = UNCERTAINTY_MEASURE_WITH_UNIT (LENGTH_MEASURE( 1.000000000000000100E-005 ), #198, 'distance_accuracy_value', 'NONE');
#196 =( NAMED_UNIT ( * ) SI_UNIT ( $, .STERADIAN. ) SOLID_ANGLE_UNIT ( ) );
#197 =( NAMED_UNIT ( * ) PLANE_ANGLE_UNIT ( ) SI_UNIT ( $, .RADIAN. ) );
#198 =( LENGTH_UNIT ( ) NAMED_UNIT ( * ) SI_UNIT ( .MILLI., .METRE. ) );
#199 = MECHANICAL_DESIGN_GEOMETRIC_PRESENTATION_REPRESENTATION (  '', ( #201 ), #194 ) ;
#200 = PRESENTATION_LAYER_ASSIGNMENT (  '', '', ( #201 ) ) ;
#201 = STYLED_ITEM ( 'NONE', ( #202 ), #209 ) ;
#202 = PRESENTATION_STYLE_ASSIGNMENT (( #203 ) ) ;
#203 = SURFACE_STYLE_USAGE ( .BOTH. , #204 ) ;
#204 = SURFACE_SIDE_STYLE ('',( #205 ) ) ;
#205 = SURFACE_STYLE_FILL_AREA ( #206 ) ;
#206 = FILL_AREA_STYLE ('',( #207 ) ) ;
#207 = FILL_AREA_STYLE_COLOUR ( '', #208 ) ;
#208 = COLOUR_RGB ( '',0.7960784313725489700, 0.8235294117647058400, 0.9372549019607843100 ) ;
#209 = ADVANCED_BREP_SHAPE_REPRESENTATION ( '3235-E0W', ( #54, #218 ), #213 ) ;
#210 = SURFACE_STYLE_USAGE ( .BOTH. , #211 ) ;
#211 = SURFACE_SIDE_STYLE ('',( #191 ) ) ;
#212 = STYLED_ITEM ( 'NONE', ( #180 ), #60 ) ;
#213 =( GEOMETRIC_REPRESENTATION_CONTEXT ( 3 ) GLOBAL_UNCERTAINTY_ASSIGNED_CONTEXT ( ( #214 ) ) GLOBAL_UNIT_ASSIGNED_CONTEXT ( ( #217, #216, #215 ) ) REPRESENTATION_CONTEXT ( 'NONE', 'WORKASPACE' ) );
#214 = UNCERTAINTY_MEASURE_WITH_UNIT (LENGTH_MEASURE( 1.000000000000000100E-005 ), #217, 'distance_accuracy_value', 'NONE');
#215 =( NAMED_UNIT ( * ) SI_UNIT ( $, .STERADIAN. ) SOLID_ANGLE_UNIT ( ) );
#216 =( NAMED_UNIT ( * ) PLANE_ANGLE_UNIT ( ) SI_UNIT ( $, .RADIAN. ) );
#217 =( LENGTH_UNIT ( ) NAMED_UNIT ( * ) SI_UNIT ( .MILLI., .METRE. ) );
#218 = AXIS2_PLACEMENT_3D ( 'NONE', #261, #193, #192 ) ;
#219 = DIRECTION ( 'NONE',  ( 1.000000000000000000, 0.0000000000000000000, 0.0000000000000000000 ) ) ;
#220 = DIRECTION ( 'NONE',  ( -0.0000000000000000000, -0.0000000000000000000, 1.000000000000000000 ) ) ;
#221 = CARTESIAN_POINT ( 'NONE',  ( 0.0000000000000000000, 0.0000000000000000000, -0.2002836054520373600 ) ) ;
#222 = AXIS2_PLACEMENT_3D ( 'NONE', #221, #220, #219 ) ;
#223 = CIRCLE ( 'NONE', #222, 6.350000000000002300 ) ;
#224 = DIRECTION ( 'NONE',  ( -0.0000000000000000000, -0.0000000000000000000, 1.000000000000000000 ) ) ;
#225 = VECTOR ( 'NONE', #224, 1000.000000000000000 ) ;
#226 = CARTESIAN_POINT ( 'NONE',  ( 6.350000000000001400, 0.0000000000000000000, 4.308132045400366600 ) ) ;
#227 = LINE ( 'NONE', #226, #225 ) ;
#228 = DIRECTION ( 'NONE',  ( 0.0000000000000000000, 1.000000000000000000, 0.0000000000000000000 ) ) ;
#229 = DIRECTION ( 'NONE',  ( -1.000000000000000000, 0.0000000000000000000, 0.0000000000000000000 ) ) ;
#230 = CARTESIAN_POINT ( 'NONE',  ( 0.0000000000000000000, 0.0000000000000000000, -8.309999999999998700 ) ) ;
#231 = AXIS2_PLACEMENT_3D ( 'NONE', #230, #229, #228 ) ;
#232 = CARTESIAN_POINT ( 'NONE',  ( 6.350000000000000500, 0.0000000000000000000, -1.990000000000000400 ) ) ;
#233 = SPHERICAL_SURFACE ( 'NONE', #231, 10.30000000000000100 ) ;
#234 =( GEOMETRIC_REPRESENTATION_CONTEXT ( 3 ) GLOBAL_UNCERTAINTY_ASSIGNED_CONTEXT ( ( #235 ) ) GLOBAL_UNIT_ASSIGNED_CONTEXT ( ( #238, #237, #236 ) ) REPRESENTATION_CONTEXT ( 'NONE', 'WORKASPACE' ) );
#235 = UNCERTAINTY_MEASURE_WITH_UNIT (LENGTH_MEASURE( 1.000000000000000100E-005 ), #238, 'distance_accuracy_value', 'NONE');
#236 =( NAMED_UNIT ( * ) SI_UNIT ( $, .STERADIAN. ) SOLID_ANGLE_UNIT ( ) );
#237 =( NAMED_UNIT ( * ) PLANE_ANGLE_UNIT ( ) SI_UNIT ( $, .RADIAN. ) );
#238 =( LENGTH_UNIT ( ) NAMED_UNIT ( * ) SI_UNIT ( .MILLI., .METRE. ) );
#239 = MECHANICAL_DESIGN_GEOMETRIC_PRESENTATION_REPRESENTATION (  '', ( #241 ), #234 ) ;
#240 = PRESENTATION_LAYER_ASSIGNMENT (  '', '', ( #241 ) ) ;
#241 = STYLED_ITEM ( 'NONE', ( #242 ), #77 ) ;
#242 = PRESENTATION_STYLE_ASSIGNMENT (( #243 ) ) ;
#243 = SURFACE_STYLE_USAGE ( .BOTH. , #244 ) ;
#244 = SURFACE_SIDE_STYLE ('',( #245 ) ) ;
#245 = SURFACE_STYLE_FILL_AREA ( #246 ) ;
#246 = FILL_AREA_STYLE ('',( #253 ) ) ;
#247 = COLOUR_RGB ( '',0.9568627450980391500, 0.9490196078431372100, 0.9607843137254902200 ) ;
#248 = FACE_OUTER_BOUND ( 'NONE', #45, .T. ) ;
#249 = DIRECTION ( 'NONE',  ( 1.000000000000000000, 0.0000000000000000000, 0.0000000000000000000 ) ) ;
#250 = DIRECTION ( 'NONE',  ( -0.0000000000000000000, -0.0000000000000000000, 1.000000000000000000 ) ) ;
#251 = CARTESIAN_POINT ( 'NONE',  ( 0.0000000000000000000, 0.0000000000000000000, -1.990000000000000400 ) ) ;
#252 = AXIS2_PLACEMENT_3D ( 'NONE', #251, #250, #249 ) ;
#253 = FILL_AREA_STYLE_COLOUR ( '', #247 ) ;
#254 = DIRECTION ( 'NONE',  ( 1.000000000000000000, 0.0000000000000000000, 0.0000000000000000000 ) ) ;
#255 = DIRECTION ( 'NONE',  ( 0.0000000000000000000, -0.0000000000000000000, 1.000000000000000000 ) ) ;
#256 = CARTESIAN_POINT ( 'NONE',  ( 0.0000000000000000000, 7.311141390909697500E-016, -1.990000000000000000 ) ) ;
#257 = AXIS2_PLACEMENT_3D ( 'NONE', #256, #255, #254 ) ;
#258 = CIRCLE ( 'NONE', #252, 6.350000000000000500 ) ;
#259 = PLANE ( 'NONE',  #257 ) ;
#260 =( GEOMETRIC_REPRESENTATION_CONTEXT ( 3 ) GLOBAL_UNCERTAINTY_ASSIGNED_CONTEXT ( ( #187 ) ) GLOBAL_UNIT_ASSIGNED_CONTEXT ( ( #181, #189, #188 ) ) REPRESENTATION_CONTEXT ( 'NONE', 'WORKASPACE' ) );
#261 = CARTESIAN_POINT ( 'NONE',  ( 0.0000000000000000000, 0.0000000000000000000, 0.0000000000000000000 ) ) ;
ENDSEC;
END-ISO-10303-21;
