ISO-10303-21;
HEADER;
FILE_DESCRIPTION (( 'STEP AP203' ),
    '1' );
FILE_NAME ('Web Model 17171.step',
    '2021-06-17T18:09:31',
    ( '' ),
    ( '' ),
    'SwSTEP 2.0',
    'SolidWorks 2018',
    '' );
FILE_SCHEMA (( 'CONFIG_CONTROL_DESIGN' ));
ENDSEC;

DATA;
#1 = APPROVAL_PERSON_ORGANIZATION ( #121, #159, #22 ) ;
#2 = EDGE_LOOP ( 'NONE', ( #93, #30, #20, #39 ) ) ;
#3 = LOCAL_TIME ( 14, 9, 31.00000000000000000, #99 ) ;
#4 = CC_DESIGN_PERSON_AND_ORGANIZATION_ASSIGNMENT ( #25, #164, ( #171 ) ) ;
#5 = EDGE_LOOP ( 'NONE', ( #65, #123 ) ) ;
#6 = DIRECTION ( 'NONE',  ( 1.000000000000000000, 0.000000000000000000, 0.000000000000000000 ) ) ;
#7 = CIRCLE ( 'NONE', #101, 2.952755905511811552 ) ;
#8 = ORIENTED_EDGE ( 'NONE', *, *, #120, .F. ) ;
#9 = DIRECTION ( 'NONE',  ( 0.000000000000000000, 0.000000000000000000, 1.000000000000000000 ) ) ;
#10 = DIRECTION ( 'NONE',  ( -0.000000000000000000, -0.000000000000000000, -1.000000000000000000 ) ) ;
#11 = CYLINDRICAL_SURFACE ( 'NONE', #35, 2.952755905511811552 ) ;
#12 = CC_DESIGN_APPROVAL ( #108, ( #28 ) ) ;
#13 = DATE_TIME_ROLE ( 'creation_date' ) ;
#14 = AXIS2_PLACEMENT_3D ( 'NONE', #174, #17, #107 ) ;
#15 = CC_DESIGN_PERSON_AND_ORGANIZATION_ASSIGNMENT ( #169, #64, ( #48 ) ) ;
#16 = LOCAL_TIME ( 14, 9, 31.00000000000000000, #130 ) ;
#17 = DIRECTION ( 'NONE',  ( 0.000000000000000000, 0.000000000000000000, 1.000000000000000000 ) ) ;
#18 = APPROVAL_DATE_TIME ( #104, #63 ) ;
#19 = PLANE ( 'NONE',  #163 ) ;
#20 = ORIENTED_EDGE ( 'NONE', *, *, #120, .T. ) ;
#21 = DIRECTION ( 'NONE',  ( 1.000000000000000000, 0.000000000000000000, 0.000000000000000000 ) ) ;
#22 = APPROVAL_ROLE ( '' ) ;
#23 = CC_DESIGN_PERSON_AND_ORGANIZATION_ASSIGNMENT ( #124, #134, ( #48 ) ) ;
#24 = PERSON_AND_ORGANIZATION_ROLE ( 'classification_officer' ) ;
#25 = PERSON_AND_ORGANIZATION ( #146, #140 ) ;
#26 = CARTESIAN_POINT ( 'NONE',  ( 0.000000000000000000, 0.000000000000000000, 0.000000000000000000 ) ) ;
#27 = APPROVAL_PERSON_ORGANIZATION ( #85, #63, #132 ) ;
#28 = SECURITY_CLASSIFICATION ( '', '', #161 ) ;
#29 = LOCAL_TIME ( 14, 9, 31.00000000000000000, #57 ) ;
#30 = ORIENTED_EDGE ( 'NONE', *, *, #91, .F. ) ;
#31 = DIRECTION ( 'NONE',  ( 0.000000000000000000, 0.000000000000000000, 1.000000000000000000 ) ) ;
#32 = SHAPE_DEFINITION_REPRESENTATION ( #110, #166 ) ;
#33 = CC_DESIGN_APPROVAL ( #159, ( #48 ) ) ;
#34 = ORIENTED_EDGE ( 'NONE', *, *, #49, .F. ) ;
#35 = AXIS2_PLACEMENT_3D ( 'NONE', #58, #10, #74 ) ;
#36 = DIRECTION ( 'NONE',  ( 0.000000000000000000, 0.000000000000000000, 1.000000000000000000 ) ) ;
#37 = FACE_OUTER_BOUND ( 'NONE', #115, .T. ) ;
#38 = PERSON_AND_ORGANIZATION_ROLE ( 'design_owner' ) ;
#39 = ORIENTED_EDGE ( 'NONE', *, *, #133, .T. ) ;
#40 = LINE ( 'NONE', #158, #44 ) ;
#41 = VERTEX_POINT ( 'NONE', #119 ) ;
#42 = CC_DESIGN_DATE_AND_TIME_ASSIGNMENT ( #170, #66, ( #28 ) ) ;
#43 =( GEOMETRIC_REPRESENTATION_CONTEXT ( 3 ) GLOBAL_UNCERTAINTY_ASSIGNED_CONTEXT ( ( #80 ) ) GLOBAL_UNIT_ASSIGNED_CONTEXT ( ( #128, #112, #45 ) ) REPRESENTATION_CONTEXT ( 'NONE', 'WORKASPACE' ) );
#44 = VECTOR ( 'NONE', #176, 39.37007874015748143 ) ;
#45 =( NAMED_UNIT ( * ) SI_UNIT ( $, .STERADIAN. ) SOLID_ANGLE_UNIT ( ) );
#46 = DIRECTION ( 'NONE',  ( 1.000000000000000000, 0.000000000000000000, 0.000000000000000000 ) ) ;
#47 = APPROVAL_STATUS ( 'not_yet_approved' ) ;
#48 = PRODUCT_DEFINITION_FORMATION_WITH_SPECIFIED_SOURCE ( 'ANY', '', #127, .NOT_KNOWN. ) ;
#49 = EDGE_CURVE ( 'NONE', #142, #141, #75, .T. ) ;
#50 = PLANE ( 'NONE',  #89 ) ;
#51 = FACE_OUTER_BOUND ( 'NONE', #5, .T. ) ;
#52 = PERSON_AND_ORGANIZATION ( #146, #140 ) ;
#53 = EDGE_LOOP ( 'NONE', ( #60, #34 ) ) ;
#54 = APPLICATION_CONTEXT ( 'configuration controlled 3d designs of mechanical parts and assemblies' ) ;
#55 = AXIS2_PLACEMENT_3D ( 'NONE', #137, #151, #6 ) ;
#56 = DIRECTION ( 'NONE',  ( -0.000000000000000000, -0.000000000000000000, -1.000000000000000000 ) ) ;
#57 = COORDINATED_UNIVERSAL_TIME_OFFSET ( 5, 0, .BEHIND. ) ;
#58 = CARTESIAN_POINT ( 'NONE',  ( 0.000000000000000000, 0.000000000000000000, 0.1574803149606299191 ) ) ;
#59 = AXIS2_PLACEMENT_3D ( 'NONE', #156, #73, #155 ) ;
#60 = ORIENTED_EDGE ( 'NONE', *, *, #133, .F. ) ;
#61 = DIRECTION ( 'NONE',  ( 1.000000000000000000, 0.000000000000000000, -0.000000000000000000 ) ) ;
#62 = PERSON_AND_ORGANIZATION ( #146, #140 ) ;
#63 = APPROVAL ( #47, 'UNSPECIFIED' ) ;
#64 = PERSON_AND_ORGANIZATION_ROLE ( 'design_supplier' ) ;
#65 = ORIENTED_EDGE ( 'NONE', *, *, #91, .T. ) ;
#66 = DATE_TIME_ROLE ( 'classification_date' ) ;
#67 = LOCAL_TIME ( 14, 9, 31.00000000000000000, #173 ) ;
#68 = ORIENTED_EDGE ( 'NONE', *, *, #126, .F. ) ;
#69 = AXIS2_PLACEMENT_3D ( 'NONE', #113, #81, #84 ) ;
#70 = ORIENTED_EDGE ( 'NONE', *, *, #49, .T. ) ;
#71 = DIRECTION ( 'NONE',  ( 1.000000000000000000, 0.000000000000000000, -0.000000000000000000 ) ) ;
#72 = CARTESIAN_POINT ( 'NONE',  ( 0.000000000000000000, 0.000000000000000000, 0.1574803149606299191 ) ) ;
#73 = DIRECTION ( 'NONE',  ( -0.000000000000000000, -0.000000000000000000, -1.000000000000000000 ) ) ;
#74 = DIRECTION ( 'NONE',  ( -1.000000000000000000, 0.000000000000000000, 0.000000000000000000 ) ) ;
#75 = CIRCLE ( 'NONE', #55, 2.952755905511811552 ) ;
#76 = APPROVAL_STATUS ( 'not_yet_approved' ) ;
#77 = LINE ( 'NONE', #98, #95 ) ;
#78 = PRODUCT_RELATED_PRODUCT_CATEGORY ( 'detail', '', ( #127 ) ) ;
#79 = EDGE_CURVE ( 'NONE', #175, #142, #77, .T. ) ;
#80 = UNCERTAINTY_MEASURE_WITH_UNIT (LENGTH_MEASURE( 1.000000000000000082E-05 ), #128, 'distance_accuracy_value', 'NONE');
#81 = DIRECTION ( 'NONE',  ( 0.000000000000000000, 0.000000000000000000, 1.000000000000000000 ) ) ;
#82 = CARTESIAN_POINT ( 'NONE',  ( -2.952755905511811552, 0.000000000000000000, 0.000000000000000000 ) ) ;
#83 = DIMENSIONAL_EXPONENTS ( 1.000000000000000000, 0.000000000000000000, 0.000000000000000000, 0.000000000000000000, 0.000000000000000000, 0.000000000000000000, 0.000000000000000000 ) ;
#84 = DIRECTION ( 'NONE',  ( 1.000000000000000000, 0.000000000000000000, 0.000000000000000000 ) ) ;
#85 = PERSON_AND_ORGANIZATION ( #146, #140 ) ;
#86 = ADVANCED_FACE ( 'NONE', ( #150 ), #50, .F. ) ;
#87 = MECHANICAL_CONTEXT ( 'NONE', #54, 'mechanical' ) ;
#88 = CALENDAR_DATE ( 2021, 17, 6 ) ;
#89 = AXIS2_PLACEMENT_3D ( 'NONE', #26, #31, #71 ) ;
#90 = COORDINATED_UNIVERSAL_TIME_OFFSET ( 5, 0, .BEHIND. ) ;
#91 = EDGE_CURVE ( 'NONE', #41, #175, #111, .T. ) ;
#92 = DATE_AND_TIME ( #165, #67 ) ;
#93 = ORIENTED_EDGE ( 'NONE', *, *, #79, .F. ) ;
#94 = APPROVAL_DATE_TIME ( #103, #108 ) ;
#95 = VECTOR ( 'NONE', #56, 39.37007874015748143 ) ;
#96 = CC_DESIGN_DATE_AND_TIME_ASSIGNMENT ( #92, #13, ( #171 ) ) ;
#97 = ORIENTED_EDGE ( 'NONE', *, *, #79, .T. ) ;
#98 = CARTESIAN_POINT ( 'NONE',  ( 2.952755905511811552, 3.616083068348484413E-16, 0.1574803149606299191 ) ) ;
#99 = COORDINATED_UNIVERSAL_TIME_OFFSET ( 5, 0, .BEHIND. ) ;
#100 = CARTESIAN_POINT ( 'NONE',  ( 2.952755905511811552, 3.616083068348484413E-16, 0.000000000000000000 ) ) ;
#101 = AXIS2_PLACEMENT_3D ( 'NONE', #125, #9, #46 ) ;
#102 = CARTESIAN_POINT ( 'NONE',  ( 2.952755905511811552, 3.616083068348484413E-16, 0.1574803149606299191 ) ) ;
#103 = DATE_AND_TIME ( #139, #144 ) ;
#104 = DATE_AND_TIME ( #109, #16 ) ;
#105 = PERSON_AND_ORGANIZATION ( #146, #140 ) ;
#106 = CIRCLE ( 'NONE', #152, 2.952755905511811552 ) ;
#107 = DIRECTION ( 'NONE',  ( 1.000000000000000000, 0.000000000000000000, 0.000000000000000000 ) ) ;
#108 = APPROVAL ( #162, 'UNSPECIFIED' ) ;
#109 = CALENDAR_DATE ( 2021, 17, 6 ) ;
#110 = PRODUCT_DEFINITION_SHAPE ( 'NONE', 'NONE',  #171 ) ;
#111 = CIRCLE ( 'NONE', #69, 2.952755905511811552 ) ;
#112 =( NAMED_UNIT ( * ) PLANE_ANGLE_UNIT ( ) SI_UNIT ( $, .RADIAN. ) );
#113 = CARTESIAN_POINT ( 'NONE',  ( 0.000000000000000000, 0.000000000000000000, 0.1574803149606299191 ) ) ;
#114 = FACE_OUTER_BOUND ( 'NONE', #2, .T. ) ;
#115 = EDGE_LOOP ( 'NONE', ( #68, #97, #70, #8 ) ) ;
#116 = MANIFOLD_SOLID_BREP ( 'Boss-Extrude1', #136 ) ;
#117 = CC_DESIGN_SECURITY_CLASSIFICATION ( #28, ( #48 ) ) ;
#118 = APPROVAL_ROLE ( '' ) ;
#119 = CARTESIAN_POINT ( 'NONE',  ( -2.952755905511811552, 0.000000000000000000, 0.1574803149606299191 ) ) ;
#120 = EDGE_CURVE ( 'NONE', #41, #141, #40, .T. ) ;
#121 = PERSON_AND_ORGANIZATION ( #146, #140 ) ;
#122 = CC_DESIGN_PERSON_AND_ORGANIZATION_ASSIGNMENT ( #62, #38, ( #127 ) ) ;
#123 = ORIENTED_EDGE ( 'NONE', *, *, #126, .T. ) ;
#124 = PERSON_AND_ORGANIZATION ( #146, #140 ) ;
#125 = CARTESIAN_POINT ( 'NONE',  ( 0.000000000000000000, 0.000000000000000000, 0.1574803149606299191 ) ) ;
#126 = EDGE_CURVE ( 'NONE', #175, #41, #7, .T. ) ;
#127 = PRODUCT ( 'Web Model 17171', 'Web Model 17171', '', ( #87 ) ) ;
#128 =( CONVERSION_BASED_UNIT ( 'INCH', #145 ) LENGTH_UNIT ( ) NAMED_UNIT ( #83 ) );
#129 = APPROVAL_PERSON_ORGANIZATION ( #105, #108, #118 ) ;
#130 = COORDINATED_UNIVERSAL_TIME_OFFSET ( 5, 0, .BEHIND. ) ;
#131 = APPLICATION_PROTOCOL_DEFINITION ( 'international standard', 'config_control_design', 1994, #149 ) ;
#132 = APPROVAL_ROLE ( '' ) ;
#133 = EDGE_CURVE ( 'NONE', #141, #142, #106, .T. ) ;
#134 = PERSON_AND_ORGANIZATION_ROLE ( 'creator' ) ;
#135 = DATE_AND_TIME ( #88, #29 ) ;
#136 = CLOSED_SHELL ( 'NONE', ( #157, #160, #148, #86 ) ) ;
#137 = CARTESIAN_POINT ( 'NONE',  ( 0.000000000000000000, 0.000000000000000000, 0.000000000000000000 ) ) ;
#138 = APPROVAL_DATE_TIME ( #135, #159 ) ;
#139 = CALENDAR_DATE ( 2021, 17, 6 ) ;
#140 = ORGANIZATION ( 'UNSPECIFIED', 'UNSPECIFIED', '' ) ;
#141 = VERTEX_POINT ( 'NONE', #82 ) ;
#142 = VERTEX_POINT ( 'NONE', #100 ) ;
#143 = DIRECTION ( 'NONE',  ( 0.000000000000000000, 0.000000000000000000, 1.000000000000000000 ) ) ;
#144 = LOCAL_TIME ( 14, 9, 31.00000000000000000, #90 ) ;
#145 = LENGTH_MEASURE_WITH_UNIT ( LENGTH_MEASURE( 0.02539999999999999897 ), #178 );
#146 = PERSON ( 'UNSPECIFIED', 'UNSPECIFIED', 'UNSPECIFIED', ('UNSPECIFIED'), ('UNSPECIFIED'), ('UNSPECIFIED') ) ;
#147 = CARTESIAN_POINT ( 'NONE',  ( 0.000000000000000000, 0.000000000000000000, 0.000000000000000000 ) ) ;
#148 = ADVANCED_FACE ( 'NONE', ( #51 ), #19, .T. ) ;
#149 = APPLICATION_CONTEXT ( 'configuration controlled 3d designs of mechanical parts and assemblies' ) ;
#150 = FACE_OUTER_BOUND ( 'NONE', #53, .T. ) ;
#151 = DIRECTION ( 'NONE',  ( 0.000000000000000000, 0.000000000000000000, 1.000000000000000000 ) ) ;
#152 = AXIS2_PLACEMENT_3D ( 'NONE', #147, #36, #21 ) ;
#153 = CC_DESIGN_APPROVAL ( #63, ( #171 ) ) ;
#154 = APPLICATION_PROTOCOL_DEFINITION ( 'international standard', 'config_control_design', 1994, #54 ) ;
#155 = DIRECTION ( 'NONE',  ( -1.000000000000000000, 0.000000000000000000, 0.000000000000000000 ) ) ;
#156 = CARTESIAN_POINT ( 'NONE',  ( 0.000000000000000000, 0.000000000000000000, 0.1574803149606299191 ) ) ;
#157 = ADVANCED_FACE ( 'NONE', ( #37 ), #11, .T. ) ;
#158 = CARTESIAN_POINT ( 'NONE',  ( -2.952755905511811552, 0.000000000000000000, 0.1574803149606299191 ) ) ;
#159 = APPROVAL ( #76, 'UNSPECIFIED' ) ;
#160 = ADVANCED_FACE ( 'NONE', ( #114 ), #172, .T. ) ;
#161 = SECURITY_CLASSIFICATION_LEVEL ( 'unclassified' ) ;
#162 = APPROVAL_STATUS ( 'not_yet_approved' ) ;
#163 = AXIS2_PLACEMENT_3D ( 'NONE', #72, #143, #61 ) ;
#164 = PERSON_AND_ORGANIZATION_ROLE ( 'creator' ) ;
#165 = CALENDAR_DATE ( 2021, 17, 6 ) ;
#166 = ADVANCED_BREP_SHAPE_REPRESENTATION ( 'Web Model 17171', ( #116, #14 ), #43 ) ;
#167 = CC_DESIGN_PERSON_AND_ORGANIZATION_ASSIGNMENT ( #52, #24, ( #28 ) ) ;
#168 = DESIGN_CONTEXT ( 'detailed design', #149, 'design' ) ;
#169 = PERSON_AND_ORGANIZATION ( #146, #140 ) ;
#170 = DATE_AND_TIME ( #177, #3 ) ;
#171 = PRODUCT_DEFINITION ( 'UNKNOWN', '', #48, #168 ) ;
#172 = CYLINDRICAL_SURFACE ( 'NONE', #59, 2.952755905511811552 ) ;
#173 = COORDINATED_UNIVERSAL_TIME_OFFSET ( 5, 0, .BEHIND. ) ;
#174 = CARTESIAN_POINT ( 'NONE',  ( 0.000000000000000000, 0.000000000000000000, 0.000000000000000000 ) ) ;
#175 = VERTEX_POINT ( 'NONE', #102 ) ;
#176 = DIRECTION ( 'NONE',  ( -0.000000000000000000, -0.000000000000000000, -1.000000000000000000 ) ) ;
#177 = CALENDAR_DATE ( 2021, 17, 6 ) ;
#178 =( LENGTH_UNIT ( ) NAMED_UNIT ( * ) SI_UNIT ( $, .METRE. ) );
ENDSEC;
END-ISO-10303-21;
