ISO-10303-21;
HEADER;
FILE_DESCRIPTION (( 'STEP AP203' ),
    '1' );
FILE_NAME ('Web Model 11864_11867.step',
    '2019-01-03T21:49:23',
    ( '' ),
    ( '' ),
    'SwSTEP 2.0',
    'SolidWorks 2016',
    '' );
FILE_SCHEMA (( 'CONFIG_CONTROL_DESIGN' ));
ENDSEC;

DATA;
#1 = DATE_AND_TIME ( #136, #127 ) ;
#2 = EDGE_CURVE ( 'NONE', #146, #114, #62, .T. ) ;
#3 = APPROVAL_STATUS ( 'not_yet_approved' ) ;
#4 = CYLINDRICAL_SURFACE ( 'NONE', #36, 38.10000000000000100 ) ;
#5 = PERSON ( 'UNSPECIFIED', 'UNSPECIFIED', 'UNSPECIFIED', ('UNSPECIFIED'), ('UNSPECIFIED'), ('UNSPECIFIED') ) ;
#6 = ORIENTED_EDGE ( 'NONE', *, *, #154, .F. ) ;
#7 = LOCAL_TIME ( 16, 49, 23.00000000000000000, #153 ) ;
#8 = APPROVAL ( #86, 'UNSPECIFIED' ) ;
#9 = ORIENTED_EDGE ( 'NONE', *, *, #137, .F. ) ;
#10 = CARTESIAN_POINT ( 'NONE',  ( 38.10000000000000100, 4.665904304751416100E-015, -2.500000000000000000 ) ) ;
#11 = CARTESIAN_POINT ( 'NONE',  ( 0.0000000000000000000, 0.0000000000000000000, 2.500000000000000000 ) ) ;
#12 = CARTESIAN_POINT ( 'NONE',  ( 38.10000000000000100, 4.665904304751416100E-015, 2.500000000000000000 ) ) ;
#13 = FACE_OUTER_BOUND ( 'NONE', #79, .T. ) ;
#14 = DIRECTION ( 'NONE',  ( 0.0000000000000000000, 0.0000000000000000000, 1.000000000000000000 ) ) ;
#15 = DIRECTION ( 'NONE',  ( 0.0000000000000000000, 0.0000000000000000000, 1.000000000000000000 ) ) ;
#16 = AXIS2_PLACEMENT_3D ( 'NONE', #117, #14, #150 ) ;
#17 = COORDINATED_UNIVERSAL_TIME_OFFSET ( 5, 0, .BEHIND. ) ;
#18 = DATE_AND_TIME ( #124, #77 ) ;
#19 = LOCAL_TIME ( 16, 49, 23.00000000000000000, #118 ) ;
#20 = COORDINATED_UNIVERSAL_TIME_OFFSET ( 5, 0, .BEHIND. ) ;
#21 = DIRECTION ( 'NONE',  ( 1.000000000000000000, 0.0000000000000000000, -0.0000000000000000000 ) ) ;
#22 = VECTOR ( 'NONE', #163, 1000.000000000000000 ) ;
#23 = PERSON_AND_ORGANIZATION ( #5, #55 ) ;
#24 = ADVANCED_FACE ( 'NONE', ( #175 ), #61, .T. ) ;
#25 = PERSON_AND_ORGANIZATION_ROLE ( 'classification_officer' ) ;
#26 = PERSON_AND_ORGANIZATION ( #5, #55 ) ;
#27 =( NAMED_UNIT ( * ) PLANE_ANGLE_UNIT ( ) SI_UNIT ( $, .RADIAN. ) );
#28 = CC_DESIGN_APPROVAL ( #142, ( #73 ) ) ;
#29 = DIRECTION ( 'NONE',  ( 1.000000000000000000, 0.0000000000000000000, -0.0000000000000000000 ) ) ;
#30 = DIRECTION ( 'NONE',  ( 1.000000000000000000, 0.0000000000000000000, 0.0000000000000000000 ) ) ;
#31 = CLOSED_SHELL ( 'NONE', ( #135, #84, #24, #134 ) ) ;
#32 = PERSON_AND_ORGANIZATION_ROLE ( 'design_owner' ) ;
#33 = APPROVAL_STATUS ( 'not_yet_approved' ) ;
#34 = CIRCLE ( 'NONE', #45, 38.10000000000000100 ) ;
#35 = ORIENTED_EDGE ( 'NONE', *, *, #2, .F. ) ;
#36 = AXIS2_PLACEMENT_3D ( 'NONE', #72, #99, #58 ) ;
#37 = DIRECTION ( 'NONE',  ( 1.000000000000000000, 0.0000000000000000000, 0.0000000000000000000 ) ) ;
#38 = FACE_OUTER_BOUND ( 'NONE', #166, .T. ) ;
#39 = CARTESIAN_POINT ( 'NONE',  ( -38.10000000000000100, 0.0000000000000000000, -2.500000000000000000 ) ) ;
#40 = CARTESIAN_POINT ( 'NONE',  ( 0.0000000000000000000, 0.0000000000000000000, -2.500000000000000000 ) ) ;
#41 = AXIS2_PLACEMENT_3D ( 'NONE', #159, #143, #59 ) ;
#42 = CARTESIAN_POINT ( 'NONE',  ( 0.0000000000000000000, 0.0000000000000000000, 2.500000000000000000 ) ) ;
#43 = COORDINATED_UNIVERSAL_TIME_OFFSET ( 5, 0, .BEHIND. ) ;
#44 = DIRECTION ( 'NONE',  ( 0.0000000000000000000, 0.0000000000000000000, 1.000000000000000000 ) ) ;
#45 = AXIS2_PLACEMENT_3D ( 'NONE', #42, #160, #132 ) ;
#46 = SECURITY_CLASSIFICATION_LEVEL ( 'unclassified' ) ;
#47 = APPROVAL_PERSON_ORGANIZATION ( #168, #53, #65 ) ;
#48 = PERSON_AND_ORGANIZATION ( #5, #55 ) ;
#49 = APPROVAL_DATE_TIME ( #75, #142 ) ;
#50 =( NAMED_UNIT ( * ) SI_UNIT ( $, .STERADIAN. ) SOLID_ANGLE_UNIT ( ) );
#51 = APPLICATION_PROTOCOL_DEFINITION ( 'international standard', 'config_control_design', 1994, #104 ) ;
#52 = PERSON_AND_ORGANIZATION ( #5, #55 ) ;
#53 = APPROVAL ( #33, 'UNSPECIFIED' ) ;
#54 = LINE ( 'NONE', #129, #22 ) ;
#55 = ORGANIZATION ( 'UNSPECIFIED', 'UNSPECIFIED', '' ) ;
#56 = PLANE ( 'NONE',  #96 ) ;
#57 = PRODUCT_DEFINITION ( 'UNKNOWN', '', #73, #165 ) ;
#58 = DIRECTION ( 'NONE',  ( -1.000000000000000000, 0.0000000000000000000, 0.0000000000000000000 ) ) ;
#59 = DIRECTION ( 'NONE',  ( -1.000000000000000000, 0.0000000000000000000, 0.0000000000000000000 ) ) ;
#60 = EDGE_CURVE ( 'NONE', #171, #114, #54, .T. ) ;
#61 = PLANE ( 'NONE',  #82 ) ;
#62 = CIRCLE ( 'NONE', #76, 38.10000000000000100 ) ;
#63 = PERSON_AND_ORGANIZATION ( #5, #55 ) ;
#64 = SECURITY_CLASSIFICATION ( '', '', #46 ) ;
#65 = APPROVAL_ROLE ( '' ) ;
#66 = EDGE_LOOP ( 'NONE', ( #152, #6, #170, #69 ) ) ;
#67 = PRODUCT ( 'Web Model 11864_11867', 'Web Model 11864_11867', '', ( #70 ) ) ;
#68 = CC_DESIGN_DATE_AND_TIME_ASSIGNMENT ( #97, #93, ( #57 ) ) ;
#69 = ORIENTED_EDGE ( 'NONE', *, *, #167, .T. ) ;
#70 = MECHANICAL_CONTEXT ( 'NONE', #107, 'mechanical' ) ;
#71 = LINE ( 'NONE', #12, #140 ) ;
#72 = CARTESIAN_POINT ( 'NONE',  ( 0.0000000000000000000, 0.0000000000000000000, 2.500000000000000000 ) ) ;
#73 = PRODUCT_DEFINITION_FORMATION_WITH_SPECIFIED_SOURCE ( 'ANY', '', #67, .NOT_KNOWN. ) ;
#74 = PERSON_AND_ORGANIZATION_ROLE ( 'design_supplier' ) ;
#75 = DATE_AND_TIME ( #173, #169 ) ;
#76 = AXIS2_PLACEMENT_3D ( 'NONE', #40, #158, #30 ) ;
#77 = LOCAL_TIME ( 16, 49, 23.00000000000000000, #20 ) ;
#78 = PRODUCT_DEFINITION_SHAPE ( 'NONE', 'NONE',  #57 ) ;
#79 = EDGE_LOOP ( 'NONE', ( #9, #101, #141, #123 ) ) ;
#80 = CC_DESIGN_APPROVAL ( #8, ( #64 ) ) ;
#81 = CIRCLE ( 'NONE', #119, 38.10000000000000100 ) ;
#82 = AXIS2_PLACEMENT_3D ( 'NONE', #174, #111, #29 ) ;
#83 = CARTESIAN_POINT ( 'NONE',  ( -38.10000000000000100, 0.0000000000000000000, 2.500000000000000000 ) ) ;
#84 = ADVANCED_FACE ( 'NONE', ( #92 ), #4, .T. ) ;
#85 = DIRECTION ( 'NONE',  ( 0.0000000000000000000, 0.0000000000000000000, 1.000000000000000000 ) ) ;
#86 = APPROVAL_STATUS ( 'not_yet_approved' ) ;
#87 = PRODUCT_RELATED_PRODUCT_CATEGORY ( 'detail', '', ( #67 ) ) ;
#88 = PERSON_AND_ORGANIZATION ( #5, #55 ) ;
#89 = PERSON_AND_ORGANIZATION_ROLE ( 'creator' ) ;
#90 = APPROVAL_ROLE ( '' ) ;
#91 = CC_DESIGN_SECURITY_CLASSIFICATION ( #64, ( #73 ) ) ;
#92 = FACE_OUTER_BOUND ( 'NONE', #66, .T. ) ;
#93 = DATE_TIME_ROLE ( 'creation_date' ) ;
#94 = SHAPE_DEFINITION_REPRESENTATION ( #78, #138 ) ;
#95 = APPROVAL_PERSON_ORGANIZATION ( #52, #8, #164 ) ;
#96 = AXIS2_PLACEMENT_3D ( 'NONE', #116, #85, #21 ) ;
#97 = DATE_AND_TIME ( #156, #19 ) ;
#98 = DIRECTION ( 'NONE',  ( 1.000000000000000000, 0.0000000000000000000, 0.0000000000000000000 ) ) ;
#99 = DIRECTION ( 'NONE',  ( -0.0000000000000000000, -0.0000000000000000000, -1.000000000000000000 ) ) ;
#100 =( LENGTH_UNIT ( ) NAMED_UNIT ( * ) SI_UNIT ( .MILLI., .METRE. ) );
#101 = ORIENTED_EDGE ( 'NONE', *, *, #122, .T. ) ;
#102 = CYLINDRICAL_SURFACE ( 'NONE', #41, 38.10000000000000100 ) ;
#103 = PERSON_AND_ORGANIZATION_ROLE ( 'creator' ) ;
#104 = APPLICATION_CONTEXT ( 'configuration controlled 3d designs of mechanical parts and assemblies' ) ;
#105 = APPROVAL_DATE_TIME ( #121, #8 ) ;
#106 = CC_DESIGN_PERSON_AND_ORGANIZATION_ASSIGNMENT ( #23, #32, ( #67 ) ) ;
#107 = APPLICATION_CONTEXT ( 'configuration controlled 3d designs of mechanical parts and assemblies' ) ;
#108 = ORIENTED_EDGE ( 'NONE', *, *, #154, .T. ) ;
#109 = CARTESIAN_POINT ( 'NONE',  ( 0.0000000000000000000, 0.0000000000000000000, -2.500000000000000000 ) ) ;
#110 = AXIS2_PLACEMENT_3D ( 'NONE', #11, #44, #98 ) ;
#111 = DIRECTION ( 'NONE',  ( 0.0000000000000000000, 0.0000000000000000000, 1.000000000000000000 ) ) ;
#112 = CC_DESIGN_APPROVAL ( #53, ( #57 ) ) ;
#113 = CARTESIAN_POINT ( 'NONE',  ( 38.10000000000000100, 4.665904304751416100E-015, 2.500000000000000000 ) ) ;
#114 = VERTEX_POINT ( 'NONE', #39 ) ;
#115 = EDGE_LOOP ( 'NONE', ( #108, #120 ) ) ;
#116 = CARTESIAN_POINT ( 'NONE',  ( 0.0000000000000000000, 0.0000000000000000000, -2.500000000000000000 ) ) ;
#117 = CARTESIAN_POINT ( 'NONE',  ( 0.0000000000000000000, 0.0000000000000000000, 0.0000000000000000000 ) ) ;
#118 = COORDINATED_UNIVERSAL_TIME_OFFSET ( 5, 0, .BEHIND. ) ;
#119 = AXIS2_PLACEMENT_3D ( 'NONE', #109, #15, #37 ) ;
#120 = ORIENTED_EDGE ( 'NONE', *, *, #137, .T. ) ;
#121 = DATE_AND_TIME ( #145, #7 ) ;
#122 = EDGE_CURVE ( 'NONE', #126, #146, #71, .T. ) ;
#123 = ORIENTED_EDGE ( 'NONE', *, *, #60, .F. ) ;
#124 = CALENDAR_DATE ( 2019, 3, 1 ) ;
#125 = CC_DESIGN_PERSON_AND_ORGANIZATION_ASSIGNMENT ( #131, #74, ( #73 ) ) ;
#126 = VERTEX_POINT ( 'NONE', #113 ) ;
#127 = LOCAL_TIME ( 16, 49, 23.00000000000000000, #17 ) ;
#128 = CC_DESIGN_PERSON_AND_ORGANIZATION_ASSIGNMENT ( #48, #103, ( #57 ) ) ;
#129 = CARTESIAN_POINT ( 'NONE',  ( -38.10000000000000100, 0.0000000000000000000, 2.500000000000000000 ) ) ;
#130 = DIRECTION ( 'NONE',  ( -0.0000000000000000000, -0.0000000000000000000, -1.000000000000000000 ) ) ;
#131 = PERSON_AND_ORGANIZATION ( #5, #55 ) ;
#132 = DIRECTION ( 'NONE',  ( 1.000000000000000000, 0.0000000000000000000, 0.0000000000000000000 ) ) ;
#133 = MANIFOLD_SOLID_BREP ( 'Boss-Extrude1', #31 ) ;
#134 = ADVANCED_FACE ( 'NONE', ( #38 ), #56, .F. ) ;
#135 = ADVANCED_FACE ( 'NONE', ( #13 ), #102, .T. ) ;
#136 = CALENDAR_DATE ( 2019, 3, 1 ) ;
#137 = EDGE_CURVE ( 'NONE', #126, #171, #144, .T. ) ;
#138 = ADVANCED_BREP_SHAPE_REPRESENTATION ( 'Web Model 11864_11867', ( #133, #16 ), #151 ) ;
#139 = CC_DESIGN_PERSON_AND_ORGANIZATION_ASSIGNMENT ( #63, #89, ( #73 ) ) ;
#140 = VECTOR ( 'NONE', #130, 1000.000000000000000 ) ;
#141 = ORIENTED_EDGE ( 'NONE', *, *, #2, .T. ) ;
#142 = APPROVAL ( #3, 'UNSPECIFIED' ) ;
#143 = DIRECTION ( 'NONE',  ( -0.0000000000000000000, -0.0000000000000000000, -1.000000000000000000 ) ) ;
#144 = CIRCLE ( 'NONE', #110, 38.10000000000000100 ) ;
#145 = CALENDAR_DATE ( 2019, 3, 1 ) ;
#146 = VERTEX_POINT ( 'NONE', #10 ) ;
#147 = APPLICATION_PROTOCOL_DEFINITION ( 'international standard', 'config_control_design', 1994, #107 ) ;
#148 = UNCERTAINTY_MEASURE_WITH_UNIT (LENGTH_MEASURE( 1.000000000000000100E-005 ), #100, 'distance_accuracy_value', 'NONE');
#149 = DATE_TIME_ROLE ( 'classification_date' ) ;
#150 = DIRECTION ( 'NONE',  ( 1.000000000000000000, 0.0000000000000000000, 0.0000000000000000000 ) ) ;
#151 =( GEOMETRIC_REPRESENTATION_CONTEXT ( 3 ) GLOBAL_UNCERTAINTY_ASSIGNED_CONTEXT ( ( #148 ) ) GLOBAL_UNIT_ASSIGNED_CONTEXT ( ( #100, #27, #50 ) ) REPRESENTATION_CONTEXT ( 'NONE', 'WORKASPACE' ) );
#152 = ORIENTED_EDGE ( 'NONE', *, *, #122, .F. ) ;
#153 = COORDINATED_UNIVERSAL_TIME_OFFSET ( 5, 0, .BEHIND. ) ;
#154 = EDGE_CURVE ( 'NONE', #171, #126, #34, .T. ) ;
#155 = APPROVAL_DATE_TIME ( #18, #53 ) ;
#156 = CALENDAR_DATE ( 2019, 3, 1 ) ;
#157 = CC_DESIGN_DATE_AND_TIME_ASSIGNMENT ( #1, #149, ( #64 ) ) ;
#158 = DIRECTION ( 'NONE',  ( 0.0000000000000000000, 0.0000000000000000000, 1.000000000000000000 ) ) ;
#159 = CARTESIAN_POINT ( 'NONE',  ( 0.0000000000000000000, 0.0000000000000000000, 2.500000000000000000 ) ) ;
#160 = DIRECTION ( 'NONE',  ( 0.0000000000000000000, 0.0000000000000000000, 1.000000000000000000 ) ) ;
#161 = ORIENTED_EDGE ( 'NONE', *, *, #167, .F. ) ;
#162 = APPROVAL_PERSON_ORGANIZATION ( #88, #142, #90 ) ;
#163 = DIRECTION ( 'NONE',  ( -0.0000000000000000000, -0.0000000000000000000, -1.000000000000000000 ) ) ;
#164 = APPROVAL_ROLE ( '' ) ;
#165 = DESIGN_CONTEXT ( 'detailed design', #104, 'design' ) ;
#166 = EDGE_LOOP ( 'NONE', ( #161, #35 ) ) ;
#167 = EDGE_CURVE ( 'NONE', #114, #146, #81, .T. ) ;
#168 = PERSON_AND_ORGANIZATION ( #5, #55 ) ;
#169 = LOCAL_TIME ( 16, 49, 23.00000000000000000, #43 ) ;
#170 = ORIENTED_EDGE ( 'NONE', *, *, #60, .T. ) ;
#171 = VERTEX_POINT ( 'NONE', #83 ) ;
#172 = CC_DESIGN_PERSON_AND_ORGANIZATION_ASSIGNMENT ( #26, #25, ( #64 ) ) ;
#173 = CALENDAR_DATE ( 2019, 3, 1 ) ;
#174 = CARTESIAN_POINT ( 'NONE',  ( 0.0000000000000000000, 0.0000000000000000000, 2.500000000000000000 ) ) ;
#175 = FACE_OUTER_BOUND ( 'NONE', #115, .T. ) ;
ENDSEC;
END-ISO-10303-21;
