ISO-10303-21;
HEADER;
FILE_DESCRIPTION (( 'STEP AP203' ),
    '1' );
FILE_NAME ('Web Model 45311_49643.step',
    '2019-01-07T15:41:47',
    ( '' ),
    ( '' ),
    'SwSTEP 2.0',
    'SolidWorks 2016',
    '' );
FILE_SCHEMA (( 'CONFIG_CONTROL_DESIGN' ));
ENDSEC;

DATA;
#1 = DIRECTION ( 'NONE',  ( -0.0000000000000000000, -0.0000000000000000000, -1.000000000000000000 ) ) ;
#2 = EDGE_CURVE ( 'NONE', #175, #141, #55, .T. ) ;
#3 = ORIENTED_EDGE ( 'NONE', *, *, #111, .T. ) ;
#4 = EDGE_CURVE ( 'NONE', #9, #141, #78, .T. ) ;
#5 = APPROVAL_PERSON_ORGANIZATION ( #69, #33, #22 ) ;
#6 = CLOSED_SHELL ( 'NONE', ( #68, #110, #70, #41 ) ) ;
#7 = DESIGN_CONTEXT ( 'detailed design', #122, 'design' ) ;
#8 = DIRECTION ( 'NONE',  ( -1.000000000000000000, 0.0000000000000000000, 0.0000000000000000000 ) ) ;
#9 = VERTEX_POINT ( 'NONE', #172 ) ;
#10 = DIRECTION ( 'NONE',  ( 0.0000000000000000000, 0.0000000000000000000, 1.000000000000000000 ) ) ;
#11 = PERSON_AND_ORGANIZATION ( #66, #124 ) ;
#12 = DATE_TIME_ROLE ( 'creation_date' ) ;
#13 = VERTEX_POINT ( 'NONE', #102 ) ;
#14 = EDGE_CURVE ( 'NONE', #141, #175, #42, .T. ) ;
#15 = CARTESIAN_POINT ( 'NONE',  ( 0.0000000000000000000, 0.0000000000000000000, 0.0000000000000000000 ) ) ;
#16 = APPROVAL_STATUS ( 'not_yet_approved' ) ;
#17 = APPROVAL_DATE_TIME ( #48, #87 ) ;
#18 = CC_DESIGN_APPROVAL ( #33, ( #118 ) ) ;
#19 = APPROVAL_PERSON_ORGANIZATION ( #165, #142, #51 ) ;
#20 = PRODUCT_DEFINITION_SHAPE ( 'NONE', 'NONE',  #140 ) ;
#21 = PERSON_AND_ORGANIZATION ( #66, #124 ) ;
#22 = APPROVAL_ROLE ( '' ) ;
#23 = APPROVAL_STATUS ( 'not_yet_approved' ) ;
#24 = EDGE_LOOP ( 'NONE', ( #85, #125, #30, #75 ) ) ;
#25 = APPROVAL_STATUS ( 'not_yet_approved' ) ;
#26 = AXIS2_PLACEMENT_3D ( 'NONE', #129, #10, #73 ) ;
#27 = PRODUCT ( 'Web Model 45311_49643', 'Web Model 45311_49643', '', ( #80 ) ) ;
#28 = COORDINATED_UNIVERSAL_TIME_OFFSET ( 5, 0, .BEHIND. ) ;
#29 = CC_DESIGN_SECURITY_CLASSIFICATION ( #118, ( #67 ) ) ;
#30 = ORIENTED_EDGE ( 'NONE', *, *, #166, .T. ) ;
#31 = CC_DESIGN_PERSON_AND_ORGANIZATION_ASSIGNMENT ( #167, #103, ( #140 ) ) ;
#32 = ORIENTED_EDGE ( 'NONE', *, *, #14, .T. ) ;
#33 = APPROVAL ( #25, 'UNSPECIFIED' ) ;
#34 = DIRECTION ( 'NONE',  ( 1.000000000000000000, 0.0000000000000000000, 0.0000000000000000000 ) ) ;
#35 = ORIENTED_EDGE ( 'NONE', *, *, #14, .F. ) ;
#36 = DATE_TIME_ROLE ( 'classification_date' ) ;
#37 = DIRECTION ( 'NONE',  ( 1.000000000000000000, 0.0000000000000000000, 0.0000000000000000000 ) ) ;
#38 = APPROVAL_DATE_TIME ( #43, #33 ) ;
#39 = APPROVAL_PERSON_ORGANIZATION ( #161, #87, #173 ) ;
#40 = LINE ( 'NONE', #154, #163 ) ;
#41 = ADVANCED_FACE ( 'NONE', ( #89 ), #137, .F. ) ;
#42 = CIRCLE ( 'NONE', #79, 12.50000000000000000 ) ;
#43 = DATE_AND_TIME ( #146, #138 ) ;
#44 = EDGE_LOOP ( 'NONE', ( #82, #35 ) ) ;
#45 = PRODUCT_RELATED_PRODUCT_CATEGORY ( 'detail', '', ( #27 ) ) ;
#46 = CARTESIAN_POINT ( 'NONE',  ( 0.0000000000000000000, 0.0000000000000000000, 1.000000000000000000 ) ) ;
#47 = CALENDAR_DATE ( 2019, 7, 1 ) ;
#48 = DATE_AND_TIME ( #152, #147 ) ;
#49 = DIRECTION ( 'NONE',  ( 0.0000000000000000000, 0.0000000000000000000, 1.000000000000000000 ) ) ;
#50 = CARTESIAN_POINT ( 'NONE',  ( 0.0000000000000000000, 0.0000000000000000000, -1.000000000000000000 ) ) ;
#51 = APPROVAL_ROLE ( '' ) ;
#52 = AXIS2_PLACEMENT_3D ( 'NONE', #101, #150, #74 ) ;
#53 =( LENGTH_UNIT ( ) NAMED_UNIT ( * ) SI_UNIT ( .MILLI., .METRE. ) );
#54 = COORDINATED_UNIVERSAL_TIME_OFFSET ( 5, 0, .BEHIND. ) ;
#55 = CIRCLE ( 'NONE', #26, 12.50000000000000000 ) ;
#56 = PERSON_AND_ORGANIZATION ( #66, #124 ) ;
#57 = EDGE_CURVE ( 'NONE', #13, #9, #171, .T. ) ;
#58 = ADVANCED_BREP_SHAPE_REPRESENTATION ( 'Web Model 45311_49643', ( #76, #164 ), #94 ) ;
#59 = AXIS2_PLACEMENT_3D ( 'NONE', #117, #49, #92 ) ;
#60 = CARTESIAN_POINT ( 'NONE',  ( 0.0000000000000000000, 0.0000000000000000000, 1.000000000000000000 ) ) ;
#61 = CARTESIAN_POINT ( 'NONE',  ( 0.0000000000000000000, 0.0000000000000000000, 1.000000000000000000 ) ) ;
#62 = PERSON_AND_ORGANIZATION_ROLE ( 'classification_officer' ) ;
#63 = PERSON_AND_ORGANIZATION_ROLE ( 'design_supplier' ) ;
#64 = FACE_OUTER_BOUND ( 'NONE', #24, .T. ) ;
#65 = APPLICATION_PROTOCOL_DEFINITION ( 'international standard', 'config_control_design', 1994, #122 ) ;
#66 = PERSON ( 'UNSPECIFIED', 'UNSPECIFIED', 'UNSPECIFIED', ('UNSPECIFIED'), ('UNSPECIFIED'), ('UNSPECIFIED') ) ;
#67 = PRODUCT_DEFINITION_FORMATION_WITH_SPECIFIED_SOURCE ( 'ANY', '', #27, .NOT_KNOWN. ) ;
#68 = ADVANCED_FACE ( 'NONE', ( #112 ), #132, .T. ) ;
#69 = PERSON_AND_ORGANIZATION ( #66, #124 ) ;
#70 = ADVANCED_FACE ( 'NONE', ( #97 ), #149, .T. ) ;
#71 = LOCAL_TIME ( 10, 41, 47.00000000000000000, #84 ) ;
#72 = EDGE_LOOP ( 'NONE', ( #121, #3 ) ) ;
#73 = DIRECTION ( 'NONE',  ( 1.000000000000000000, 0.0000000000000000000, 0.0000000000000000000 ) ) ;
#74 = DIRECTION ( 'NONE',  ( 1.000000000000000000, 0.0000000000000000000, -0.0000000000000000000 ) ) ;
#75 = ORIENTED_EDGE ( 'NONE', *, *, #2, .T. ) ;
#76 = MANIFOLD_SOLID_BREP ( 'Boss-Extrude1', #6 ) ;
#77 = CC_DESIGN_PERSON_AND_ORGANIZATION_ASSIGNMENT ( #86, #62, ( #118 ) ) ;
#78 = LINE ( 'NONE', #93, #106 ) ;
#79 = AXIS2_PLACEMENT_3D ( 'NONE', #114, #168, #115 ) ;
#80 = MECHANICAL_CONTEXT ( 'NONE', #123, 'mechanical' ) ;
#81 = PERSON_AND_ORGANIZATION_ROLE ( 'design_owner' ) ;
#82 = ORIENTED_EDGE ( 'NONE', *, *, #2, .F. ) ;
#83 = CC_DESIGN_PERSON_AND_ORGANIZATION_ASSIGNMENT ( #21, #81, ( #27 ) ) ;
#84 = COORDINATED_UNIVERSAL_TIME_OFFSET ( 5, 0, .BEHIND. ) ;
#85 = ORIENTED_EDGE ( 'NONE', *, *, #4, .F. ) ;
#86 = PERSON_AND_ORGANIZATION ( #66, #124 ) ;
#87 = APPROVAL ( #23, 'UNSPECIFIED' ) ;
#88 = LOCAL_TIME ( 10, 41, 47.00000000000000000, #28 ) ;
#89 = FACE_OUTER_BOUND ( 'NONE', #44, .T. ) ;
#90 = CARTESIAN_POINT ( 'NONE',  ( 12.50000000000000000, 1.530808498934191500E-015, -1.000000000000000000 ) ) ;
#91 = CC_DESIGN_DATE_AND_TIME_ASSIGNMENT ( #151, #12, ( #140 ) ) ;
#92 = DIRECTION ( 'NONE',  ( 1.000000000000000000, 0.0000000000000000000, 0.0000000000000000000 ) ) ;
#93 = CARTESIAN_POINT ( 'NONE',  ( 12.50000000000000000, 1.530808498934191500E-015, 1.000000000000000000 ) ) ;
#94 =( GEOMETRIC_REPRESENTATION_CONTEXT ( 3 ) GLOBAL_UNCERTAINTY_ASSIGNED_CONTEXT ( ( #95 ) ) GLOBAL_UNIT_ASSIGNED_CONTEXT ( ( #53, #159, #120 ) ) REPRESENTATION_CONTEXT ( 'NONE', 'WORKASPACE' ) );
#95 = UNCERTAINTY_MEASURE_WITH_UNIT (LENGTH_MEASURE( 1.000000000000000100E-005 ), #53, 'distance_accuracy_value', 'NONE');
#96 = CALENDAR_DATE ( 2019, 7, 1 ) ;
#97 = FACE_OUTER_BOUND ( 'NONE', #72, .T. ) ;
#98 = CC_DESIGN_APPROVAL ( #142, ( #67 ) ) ;
#99 = DIRECTION ( 'NONE',  ( -0.0000000000000000000, -0.0000000000000000000, -1.000000000000000000 ) ) ;
#100 = CC_DESIGN_APPROVAL ( #87, ( #140 ) ) ;
#101 = CARTESIAN_POINT ( 'NONE',  ( 0.0000000000000000000, 0.0000000000000000000, 1.000000000000000000 ) ) ;
#102 = CARTESIAN_POINT ( 'NONE',  ( -12.50000000000000000, 0.0000000000000000000, 1.000000000000000000 ) ) ;
#103 = PERSON_AND_ORGANIZATION_ROLE ( 'creator' ) ;
#104 = AXIS2_PLACEMENT_3D ( 'NONE', #46, #170, #34 ) ;
#105 = DIRECTION ( 'NONE',  ( 0.0000000000000000000, 0.0000000000000000000, 1.000000000000000000 ) ) ;
#106 = VECTOR ( 'NONE', #139, 1000.000000000000000 ) ;
#107 = SECURITY_CLASSIFICATION_LEVEL ( 'unclassified' ) ;
#108 = DATE_AND_TIME ( #47, #88 ) ;
#109 = ORIENTED_EDGE ( 'NONE', *, *, #4, .T. ) ;
#110 = ADVANCED_FACE ( 'NONE', ( #64 ), #134, .T. ) ;
#111 = EDGE_CURVE ( 'NONE', #9, #13, #143, .T. ) ;
#112 = FACE_OUTER_BOUND ( 'NONE', #113, .T. ) ;
#113 = EDGE_LOOP ( 'NONE', ( #144, #109, #32, #131 ) ) ;
#114 = CARTESIAN_POINT ( 'NONE',  ( 0.0000000000000000000, 0.0000000000000000000, -1.000000000000000000 ) ) ;
#115 = DIRECTION ( 'NONE',  ( 1.000000000000000000, 0.0000000000000000000, 0.0000000000000000000 ) ) ;
#116 = COORDINATED_UNIVERSAL_TIME_OFFSET ( 5, 0, .BEHIND. ) ;
#117 = CARTESIAN_POINT ( 'NONE',  ( 0.0000000000000000000, 0.0000000000000000000, 1.000000000000000000 ) ) ;
#118 = SECURITY_CLASSIFICATION ( '', '', #107 ) ;
#119 = CC_DESIGN_PERSON_AND_ORGANIZATION_ASSIGNMENT ( #56, #174, ( #67 ) ) ;
#120 =( NAMED_UNIT ( * ) SI_UNIT ( $, .STERADIAN. ) SOLID_ANGLE_UNIT ( ) );
#121 = ORIENTED_EDGE ( 'NONE', *, *, #57, .T. ) ;
#122 = APPLICATION_CONTEXT ( 'configuration controlled 3d designs of mechanical parts and assemblies' ) ;
#123 = APPLICATION_CONTEXT ( 'configuration controlled 3d designs of mechanical parts and assemblies' ) ;
#124 = ORGANIZATION ( 'UNSPECIFIED', 'UNSPECIFIED', '' ) ;
#125 = ORIENTED_EDGE ( 'NONE', *, *, #57, .F. ) ;
#126 = APPROVAL_DATE_TIME ( #130, #142 ) ;
#127 = AXIS2_PLACEMENT_3D ( 'NONE', #61, #99, #155 ) ;
#128 = CARTESIAN_POINT ( 'NONE',  ( -12.50000000000000000, 0.0000000000000000000, -1.000000000000000000 ) ) ;
#129 = CARTESIAN_POINT ( 'NONE',  ( 0.0000000000000000000, 0.0000000000000000000, -1.000000000000000000 ) ) ;
#130 = DATE_AND_TIME ( #135, #71 ) ;
#131 = ORIENTED_EDGE ( 'NONE', *, *, #166, .F. ) ;
#132 = CYLINDRICAL_SURFACE ( 'NONE', #127, 12.50000000000000000 ) ;
#133 = SHAPE_DEFINITION_REPRESENTATION ( #20, #58 ) ;
#134 = CYLINDRICAL_SURFACE ( 'NONE', #158, 12.50000000000000000 ) ;
#135 = CALENDAR_DATE ( 2019, 7, 1 ) ;
#136 = DIRECTION ( 'NONE',  ( 0.0000000000000000000, 0.0000000000000000000, 1.000000000000000000 ) ) ;
#137 = PLANE ( 'NONE',  #145 ) ;
#138 = LOCAL_TIME ( 10, 41, 47.00000000000000000, #160 ) ;
#139 = DIRECTION ( 'NONE',  ( -0.0000000000000000000, -0.0000000000000000000, -1.000000000000000000 ) ) ;
#140 = PRODUCT_DEFINITION ( 'UNKNOWN', '', #67, #7 ) ;
#141 = VERTEX_POINT ( 'NONE', #90 ) ;
#142 = APPROVAL ( #16, 'UNSPECIFIED' ) ;
#143 = CIRCLE ( 'NONE', #59, 12.50000000000000000 ) ;
#144 = ORIENTED_EDGE ( 'NONE', *, *, #111, .F. ) ;
#145 = AXIS2_PLACEMENT_3D ( 'NONE', #50, #136, #153 ) ;
#146 = CALENDAR_DATE ( 2019, 7, 1 ) ;
#147 = LOCAL_TIME ( 10, 41, 47.00000000000000000, #116 ) ;
#148 = CC_DESIGN_PERSON_AND_ORGANIZATION_ASSIGNMENT ( #11, #63, ( #67 ) ) ;
#149 = PLANE ( 'NONE',  #52 ) ;
#150 = DIRECTION ( 'NONE',  ( 0.0000000000000000000, 0.0000000000000000000, 1.000000000000000000 ) ) ;
#151 = DATE_AND_TIME ( #96, #156 ) ;
#152 = CALENDAR_DATE ( 2019, 7, 1 ) ;
#153 = DIRECTION ( 'NONE',  ( 1.000000000000000000, 0.0000000000000000000, -0.0000000000000000000 ) ) ;
#154 = CARTESIAN_POINT ( 'NONE',  ( -12.50000000000000000, 0.0000000000000000000, 1.000000000000000000 ) ) ;
#155 = DIRECTION ( 'NONE',  ( -1.000000000000000000, 0.0000000000000000000, 0.0000000000000000000 ) ) ;
#156 = LOCAL_TIME ( 10, 41, 47.00000000000000000, #54 ) ;
#157 = APPLICATION_PROTOCOL_DEFINITION ( 'international standard', 'config_control_design', 1994, #123 ) ;
#158 = AXIS2_PLACEMENT_3D ( 'NONE', #60, #169, #8 ) ;
#159 =( NAMED_UNIT ( * ) PLANE_ANGLE_UNIT ( ) SI_UNIT ( $, .RADIAN. ) );
#160 = COORDINATED_UNIVERSAL_TIME_OFFSET ( 5, 0, .BEHIND. ) ;
#161 = PERSON_AND_ORGANIZATION ( #66, #124 ) ;
#162 = CC_DESIGN_DATE_AND_TIME_ASSIGNMENT ( #108, #36, ( #118 ) ) ;
#163 = VECTOR ( 'NONE', #1, 1000.000000000000000 ) ;
#164 = AXIS2_PLACEMENT_3D ( 'NONE', #15, #105, #37 ) ;
#165 = PERSON_AND_ORGANIZATION ( #66, #124 ) ;
#166 = EDGE_CURVE ( 'NONE', #13, #175, #40, .T. ) ;
#167 = PERSON_AND_ORGANIZATION ( #66, #124 ) ;
#168 = DIRECTION ( 'NONE',  ( 0.0000000000000000000, 0.0000000000000000000, 1.000000000000000000 ) ) ;
#169 = DIRECTION ( 'NONE',  ( -0.0000000000000000000, -0.0000000000000000000, -1.000000000000000000 ) ) ;
#170 = DIRECTION ( 'NONE',  ( 0.0000000000000000000, 0.0000000000000000000, 1.000000000000000000 ) ) ;
#171 = CIRCLE ( 'NONE', #104, 12.50000000000000000 ) ;
#172 = CARTESIAN_POINT ( 'NONE',  ( 12.50000000000000000, 1.530808498934191500E-015, 1.000000000000000000 ) ) ;
#173 = APPROVAL_ROLE ( '' ) ;
#174 = PERSON_AND_ORGANIZATION_ROLE ( 'creator' ) ;
#175 = VERTEX_POINT ( 'NONE', #128 ) ;
ENDSEC;
END-ISO-10303-21;
