ISO-10303-21;
HEADER;
FILE_DESCRIPTION (( 'STEP AP203' ),
    '1' );
FILE_NAME ('20191-E0W.STEP',
    '2009-09-14T20:50:50',
    ( 'Admin' ),
    ( 'Thorlabs, Inc.' ),
    'SwSTEP 2.0',
    'SolidWorks 2007',
    '' );
FILE_SCHEMA (( 'CONFIG_CONTROL_DESIGN' ));
ENDSEC;

DATA;
#1 = ORIENTED_EDGE ( 'NONE', *, *, #5, .T. ) ;
#2 = ORIENTED_EDGE ( 'NONE', *, *, #55, .T. ) ;
#3 = MANIFOLD_SOLID_BREP ( 'NONE', #57 ) ;
#4 = ADVANCED_FACE ( 'NONE', ( #58 ), #59, .T. ) ;
#5 = EDGE_CURVE ( 'NONE', #43, #56, #87, .T. ) ;
#6 = ADVANCED_FACE ( 'NONE', ( #88 ), #67, .T. ) ;
#7 = EDGE_LOOP ( 'NONE', ( #2, #1 ) ) ;
#8 = ORIENTED_EDGE ( 'NONE', *, *, #53, .F. ) ;
#9 = EDGE_LOOP ( 'NONE', ( #44, #39, #54, #11 ) ) ;
#10 = ORIENTED_EDGE ( 'NONE', *, *, #17, .F. ) ;
#11 = ORIENTED_EDGE ( 'NONE', *, *, #12, .F. ) ;
#12 = EDGE_CURVE ( 'NONE', #41, #56, #66, .T. ) ;
#13 = ORIENTED_EDGE ( 'NONE', *, *, #20, .F. ) ;
#14 = VERTEX_POINT ( 'NONE', #82 ) ;
#15 = ADVANCED_FACE ( 'NONE', ( #81 ), #79, .T. ) ;
#16 = EDGE_LOOP ( 'NONE', ( #13, #37, #48 ) ) ;
#17 = EDGE_CURVE ( 'NONE', #14, #41, #74, .T. ) ;
#18 = EDGE_LOOP ( 'NONE', ( #10, #22, #8 ) ) ;
#19 = LOCAL_TIME ( 16, 50, 50.00000000000000000, #27 ) ;
#20 = EDGE_CURVE ( 'NONE', #14, #42, #115, .T. ) ;
#21 = PERSON_AND_ORGANIZATION ( #150, #156 ) ;
#22 = ORIENTED_EDGE ( 'NONE', *, *, #20, .T. ) ;
#23 = CALENDAR_DATE ( 2009, 14, 9 ) ;
#24 = APPROVAL_DATE_TIME ( #25, #140 ) ;
#25 = DATE_AND_TIME ( #23, #19 ) ;
#26 = APPROVAL_PERSON_ORGANIZATION ( #142, #140, #29 ) ;
#27 = COORDINATED_UNIVERSAL_TIME_OFFSET ( 5, 0, .BEHIND. ) ;
#28 = CC_DESIGN_APPROVAL ( #140, ( #143 ) ) ;
#29 = APPROVAL_ROLE ( '' ) ;
#30 = DATE_AND_TIME ( #32, #33 ) ;
#31 = CC_DESIGN_PERSON_AND_ORGANIZATION_ASSIGNMENT ( #21, #35, ( #143 ) ) ;
#32 = CALENDAR_DATE ( 2009, 14, 9 ) ;
#33 = LOCAL_TIME ( 16, 50, 50.00000000000000000, #75 ) ;
#34 = CC_DESIGN_DATE_AND_TIME_ASSIGNMENT ( #30, #36, ( #143 ) ) ;
#35 = PERSON_AND_ORGANIZATION_ROLE ( 'creator' ) ;
#36 = DATE_TIME_ROLE ( 'creation_date' ) ;
#37 = ORIENTED_EDGE ( 'NONE', *, *, #17, .T. ) ;
#38 = ADVANCED_FACE ( 'NONE', ( #116 ), #111, .T. ) ;
#39 = ORIENTED_EDGE ( 'NONE', *, *, #40, .T. ) ;
#40 = EDGE_CURVE ( 'NONE', #42, #43, #107, .T. ) ;
#41 = VERTEX_POINT ( 'NONE', #103 ) ;
#42 = VERTEX_POINT ( 'NONE', #102 ) ;
#43 = VERTEX_POINT ( 'NONE', #101 ) ;
#44 = ORIENTED_EDGE ( 'NONE', *, *, #53, .T. ) ;
#45 = EDGE_LOOP ( 'NONE', ( #46, #49, #47, #51 ) ) ;
#46 = ORIENTED_EDGE ( 'NONE', *, *, #40, .F. ) ;
#47 = ORIENTED_EDGE ( 'NONE', *, *, #12, .T. ) ;
#48 = ORIENTED_EDGE ( 'NONE', *, *, #52, .F. ) ;
#49 = ORIENTED_EDGE ( 'NONE', *, *, #52, .T. ) ;
#50 = ADVANCED_FACE ( 'NONE', ( #100 ), #99, .T. ) ;
#51 = ORIENTED_EDGE ( 'NONE', *, *, #5, .F. ) ;
#52 = EDGE_CURVE ( 'NONE', #42, #41, #97, .T. ) ;
#53 = EDGE_CURVE ( 'NONE', #41, #42, #127, .T. ) ;
#54 = ORIENTED_EDGE ( 'NONE', *, *, #55, .F. ) ;
#55 = EDGE_CURVE ( 'NONE', #56, #43, #122, .T. ) ;
#56 = VERTEX_POINT ( 'NONE', #138 ) ;
#57 = CLOSED_SHELL ( 'NONE', ( #4, #15, #6, #38, #50 ) ) ;
#58 = FACE_OUTER_BOUND ( 'NONE', #9, .T. ) ;
#59 = CYLINDRICAL_SURFACE ( 'NONE', #84, 12.70000000000000300 ) ;
#60 = VECTOR ( 'NONE', #83, 1000.000000000000000 ) ;
#61 = CARTESIAN_POINT ( 'NONE',  ( 0.0000000000000000000, 12.70000000000000300, -1.039999999999996300 ) ) ;
#62 = DIRECTION ( 'NONE',  ( 0.0000000000000000000, 1.000000000000000000, 3.061515884555943100E-016 ) ) ;
#63 = DIRECTION ( 'NONE',  ( 0.0000000000000000000, 3.061515884555943100E-016, -1.000000000000000000 ) ) ;
#64 = CARTESIAN_POINT ( 'NONE',  ( 0.0000000000000000000, 3.845263951002271600E-016, -1.040000000000002000 ) ) ;
#65 = AXIS2_PLACEMENT_3D ( 'NONE', #64, #63, #62 ) ;
#66 = LINE ( 'NONE', #61, #60 ) ;
#67 = PLANE ( 'NONE',  #65 ) ;
#68 = DIRECTION ( 'NONE',  ( 0.0000000000000000000, 1.000000000000000000, 3.073328992872296400E-016 ) ) ;
#69 = DIRECTION ( 'NONE',  ( 0.0000000000000000000, 3.061515884555943100E-016, -1.000000000000000000 ) ) ;
#70 = DIRECTION ( 'NONE',  ( 0.0000000000000000000, 0.0000000000000000000, 1.000000000000000000 ) ) ;
#71 = DIRECTION ( 'NONE',  ( -1.000000000000000000, 0.0000000000000000000, 0.0000000000000000000 ) ) ;
#72 = CARTESIAN_POINT ( 'NONE',  ( 0.0000000000000000000, 1.285758296706851800E-013, -1050.956000000000400 ) ) ;
#73 = AXIS2_PLACEMENT_3D ( 'NONE', #72, #71, #70 ) ;
#74 = CIRCLE ( 'NONE', #73, 1051.996000000000300 ) ;
#75 = COORDINATED_UNIVERSAL_TIME_OFFSET ( 5, 0, .BEHIND. ) ;
#76 = DIRECTION ( 'NONE',  ( 0.0000000000000000000, 1.000000000000000000, 2.110698186352716500E-016 ) ) ;
#77 = DIRECTION ( 'NONE',  ( 1.000000000000000000, 0.0000000000000000000, 0.0000000000000000000 ) ) ;
#78 = AXIS2_PLACEMENT_3D ( 'NONE', #80, #77, #76 ) ;
#79 = SPHERICAL_SURFACE ( 'NONE', #78, 1051.996000000000300 ) ;
#80 = CARTESIAN_POINT ( 'NONE',  ( 0.0000000000000000000, 1.285758296706851800E-013, -1050.956000000000400 ) ) ;
#81 = FACE_OUTER_BOUND ( 'NONE', #18, .T. ) ;
#82 = CARTESIAN_POINT ( 'NONE',  ( 0.0000000000000000000, -1.290803674884600300E-013, 1.039999999999929900 ) ) ;
#83 = DIRECTION ( 'NONE',  ( 0.0000000000000000000, 3.061515884555943100E-016, -1.000000000000000000 ) ) ;
#84 = AXIS2_PLACEMENT_3D ( 'NONE', #91, #90, #89 ) ;
#85 = CARTESIAN_POINT ( 'NONE',  ( 0.0000000000000000000, 3.845263951002278000E-016, -1.040000000000004000 ) ) ;
#86 = AXIS2_PLACEMENT_3D ( 'NONE', #85, #69, #68 ) ;
#87 = CIRCLE ( 'NONE', #86, 12.69999999999999900 ) ;
#88 = FACE_OUTER_BOUND ( 'NONE', #7, .T. ) ;
#89 = DIRECTION ( 'NONE',  ( 0.0000000000000000000, 1.000000000000000000, 3.073328992872295400E-016 ) ) ;
#90 = DIRECTION ( 'NONE',  ( 0.0000000000000000000, 3.061515884555943100E-016, -1.000000000000000000 ) ) ;
#91 = CARTESIAN_POINT ( 'NONE',  ( 0.0000000000000000000, 3.845263951002266200E-016, -1.040000000000000000 ) ) ;
#92 = CARTESIAN_POINT ( 'NONE',  ( 0.0000000000000000000, -2.287987678573794500E-016, 0.9633381699947168900 ) ) ;
#93 = AXIS2_PLACEMENT_3D ( 'NONE', #92, #129, #128 ) ;
#94 = DIRECTION ( 'NONE',  ( 0.0000000000000000000, 1.000000000000000000, 3.073328992872295400E-016 ) ) ;
#95 = DIRECTION ( 'NONE',  ( 0.0000000000000000000, 3.061515884555943100E-016, -1.000000000000000000 ) ) ;
#96 = AXIS2_PLACEMENT_3D ( 'NONE', #98, #95, #94 ) ;
#97 = CIRCLE ( 'NONE', #93, 12.70000000000000500 ) ;
#98 = CARTESIAN_POINT ( 'NONE',  ( 0.0000000000000000000, 3.845263951002266200E-016, -1.040000000000000000 ) ) ;
#99 = CYLINDRICAL_SURFACE ( 'NONE', #96, 12.70000000000000300 ) ;
#100 = FACE_OUTER_BOUND ( 'NONE', #45, .T. ) ;
#101 = CARTESIAN_POINT ( 'NONE',  ( 1.555250069354419300E-015, -12.69999999999999900, -1.040000000000008000 ) ) ;
#102 = CARTESIAN_POINT ( 'NONE',  ( 1.555250069355163400E-015, -12.70000000000627200, 0.9633381699947168900 ) ) ;
#103 = CARTESIAN_POINT ( 'NONE',  ( 0.0000000000000000000, 12.70000000000608000, 0.9633381699947207700 ) ) ;
#104 = DIRECTION ( 'NONE',  ( 0.0000000000000000000, 3.061515884555943100E-016, -1.000000000000000000 ) ) ;
#105 = VECTOR ( 'NONE', #104, 1000.000000000000000 ) ;
#106 = CARTESIAN_POINT ( 'NONE',  ( 1.555250069354419500E-015, -12.70000000000000300, -1.040000000000004000 ) ) ;
#107 = LINE ( 'NONE', #106, #105 ) ;
#108 = DIRECTION ( 'NONE',  ( 0.0000000000000000000, 1.000000000000000000, 2.110698186352716500E-016 ) ) ;
#109 = DIRECTION ( 'NONE',  ( 1.000000000000000000, 0.0000000000000000000, 0.0000000000000000000 ) ) ;
#110 = AXIS2_PLACEMENT_3D ( 'NONE', #112, #109, #108 ) ;
#111 = SPHERICAL_SURFACE ( 'NONE', #110, 1051.996000000000300 ) ;
#112 = CARTESIAN_POINT ( 'NONE',  ( 0.0000000000000000000, 1.285758296706851800E-013, -1050.956000000000400 ) ) ;
#113 = DIRECTION ( 'NONE',  ( -1.224606353822377300E-016, 1.000000000000000000, 0.0000000000000000000 ) ) ;
#114 = AXIS2_PLACEMENT_3D ( 'NONE', #130, #117, #113 ) ;
#115 = CIRCLE ( 'NONE', #114, 1051.996000000000300 ) ;
#116 = FACE_OUTER_BOUND ( 'NONE', #16, .T. ) ;
#117 = DIRECTION ( 'NONE',  ( 1.000000000000000000, 1.224606353822377300E-016, 3.749151804555343600E-032 ) ) ;
#118 = DIRECTION ( 'NONE',  ( 0.0000000000000000000, 1.000000000000000000, 3.073328992872296400E-016 ) ) ;
#119 = DIRECTION ( 'NONE',  ( 0.0000000000000000000, 3.061515884555943100E-016, -1.000000000000000000 ) ) ;
#120 = CARTESIAN_POINT ( 'NONE',  ( 0.0000000000000000000, 3.845263951002278000E-016, -1.040000000000004000 ) ) ;
#121 = AXIS2_PLACEMENT_3D ( 'NONE', #120, #119, #118 ) ;
#122 = CIRCLE ( 'NONE', #121, 12.69999999999999900 ) ;
#123 = DIRECTION ( 'NONE',  ( 0.0000000000000000000, 1.000000000000000000, 3.073328992872294900E-016 ) ) ;
#124 = DIRECTION ( 'NONE',  ( 0.0000000000000000000, 3.061515884555943100E-016, -1.000000000000000000 ) ) ;
#125 = CARTESIAN_POINT ( 'NONE',  ( 0.0000000000000000000, -2.287987678573794500E-016, 0.9633381699947168900 ) ) ;
#126 = AXIS2_PLACEMENT_3D ( 'NONE', #125, #124, #123 ) ;
#127 = CIRCLE ( 'NONE', #126, 12.70000000000000500 ) ;
#128 = DIRECTION ( 'NONE',  ( 0.0000000000000000000, 1.000000000000000000, 3.073328992872294900E-016 ) ) ;
#129 = DIRECTION ( 'NONE',  ( 0.0000000000000000000, 3.061515884555943100E-016, -1.000000000000000000 ) ) ;
#130 = CARTESIAN_POINT ( 'NONE',  ( 0.0000000000000000000, 1.285758296706851800E-013, -1050.956000000000400 ) ) ;
#131 = ADVANCED_BREP_SHAPE_REPRESENTATION ( '20191-E0W', ( #3, #139 ), #151 ) ;
#132 = PRODUCT ( '20191-E0W', '20191-E0W', '', ( #133 ) ) ;
#133 = MECHANICAL_CONTEXT ( 'NONE', #135, 'mechanical' ) ;
#134 = APPLICATION_PROTOCOL_DEFINITION ( 'international standard', 'config_control_design', 1994, #135 ) ;
#135 = APPLICATION_CONTEXT ( 'configuration controlled 3d designs of mechanical parts and assemblies' ) ;
#136 =( NAMED_UNIT ( * ) PLANE_ANGLE_UNIT ( ) SI_UNIT ( $, .RADIAN. ) );
#137 =( LENGTH_UNIT ( ) NAMED_UNIT ( * ) SI_UNIT ( .MILLI., .METRE. ) );
#138 = CARTESIAN_POINT ( 'NONE',  ( 0.0000000000000000000, 12.69999999999999900, -1.040000000000000000 ) ) ;
#139 = AXIS2_PLACEMENT_3D ( 'NONE', #149, #153, #152 ) ;
#140 = APPROVAL ( #141, 'UNSPECIFIED' ) ;
#141 = APPROVAL_STATUS ( 'not_yet_approved' ) ;
#142 = PERSON_AND_ORGANIZATION ( #150, #156 ) ;
#143 = PRODUCT_DEFINITION ( 'UNKNOWN', '', #159, #144 ) ;
#144 = DESIGN_CONTEXT ( 'detailed design', #146, 'design' ) ;
#145 = APPLICATION_PROTOCOL_DEFINITION ( 'international standard', 'config_control_design', 1994, #146 ) ;
#146 = APPLICATION_CONTEXT ( 'configuration controlled 3d designs of mechanical parts and assemblies' ) ;
#147 = CC_DESIGN_PERSON_AND_ORGANIZATION_ASSIGNMENT ( #155, #148, ( #132 ) ) ;
#148 = PERSON_AND_ORGANIZATION_ROLE ( 'design_owner' ) ;
#149 = CARTESIAN_POINT ( 'NONE',  ( 0.0000000000000000000, 0.0000000000000000000, 0.0000000000000000000 ) ) ;
#150 = PERSON ( 'UNSPECIFIED', 'UNSPECIFIED', 'UNSPECIFIED', ('UNSPECIFIED'), ('UNSPECIFIED'), ('UNSPECIFIED') ) ;
#151 =( GEOMETRIC_REPRESENTATION_CONTEXT ( 3 ) GLOBAL_UNCERTAINTY_ASSIGNED_CONTEXT ( ( #154 ) ) GLOBAL_UNIT_ASSIGNED_CONTEXT ( ( #137, #136, #157 ) ) REPRESENTATION_CONTEXT ( 'NONE', 'WORKASPACE' ) );
#152 = DIRECTION ( 'NONE',  ( 1.000000000000000000, 0.0000000000000000000, 0.0000000000000000000 ) ) ;
#153 = DIRECTION ( 'NONE',  ( 0.0000000000000000000, 0.0000000000000000000, 1.000000000000000000 ) ) ;
#154 = UNCERTAINTY_MEASURE_WITH_UNIT (LENGTH_MEASURE( 1.000000000000000100E-005 ), #137, 'distance_accuracy_value', 'NONE');
#155 = PERSON_AND_ORGANIZATION ( #150, #156 ) ;
#156 = ORGANIZATION ( 'UNSPECIFIED', 'UNSPECIFIED', '' ) ;
#157 =( NAMED_UNIT ( * ) SI_UNIT ( $, .STERADIAN. ) SOLID_ANGLE_UNIT ( ) );
#158 = PERSON_AND_ORGANIZATION ( #150, #156 ) ;
#159 = PRODUCT_DEFINITION_FORMATION_WITH_SPECIFIED_SOURCE ( 'ANY', '', #132, .NOT_KNOWN. ) ;
#160 = CC_DESIGN_PERSON_AND_ORGANIZATION_ASSIGNMENT ( #158, #161, ( #159 ) ) ;
#161 = PERSON_AND_ORGANIZATION_ROLE ( 'design_supplier' ) ;
#162 = APPROVAL_ROLE ( '' ) ;
#163 = CC_DESIGN_DATE_AND_TIME_ASSIGNMENT ( #175, #174, ( #195 ) ) ;
#164 = LOCAL_TIME ( 16, 50, 50.00000000000000000, #201 ) ;
#165 = APPROVAL_STATUS ( 'not_yet_approved' ) ;
#166 = CC_DESIGN_PERSON_AND_ORGANIZATION_ASSIGNMENT ( #200, #199, ( #159 ) ) ;
#167 = APPROVAL ( #165, 'UNSPECIFIED' ) ;
#168 = APPROVAL_PERSON_ORGANIZATION ( #191, #167, #162 ) ;
#169 = APPROVAL_DATE_TIME ( #170, #185 ) ;
#170 = DATE_AND_TIME ( #171, #172 ) ;
#171 = CALENDAR_DATE ( 2009, 14, 9 ) ;
#172 = LOCAL_TIME ( 16, 50, 50.00000000000000000, #173 ) ;
#173 = COORDINATED_UNIVERSAL_TIME_OFFSET ( 5, 0, .BEHIND. ) ;
#174 = DATE_TIME_ROLE ( 'classification_date' ) ;
#175 = DATE_AND_TIME ( #176, #177 ) ;
#176 = CALENDAR_DATE ( 2009, 14, 9 ) ;
#177 = LOCAL_TIME ( 16, 50, 50.00000000000000000, #188 ) ;
#178 = SHAPE_DEFINITION_REPRESENTATION ( #179, #131 ) ;
#179 = PRODUCT_DEFINITION_SHAPE ( 'NONE', 'NONE',  #143 ) ;
#180 = DATE_AND_TIME ( #181, #164 ) ;
#181 = CALENDAR_DATE ( 2009, 14, 9 ) ;
#182 = SECURITY_CLASSIFICATION_LEVEL ( 'unclassified' ) ;
#183 = APPROVAL_PERSON_ORGANIZATION ( #187, #185, #184 ) ;
#184 = APPROVAL_ROLE ( '' ) ;
#185 = APPROVAL ( #186, 'UNSPECIFIED' ) ;
#186 = APPROVAL_STATUS ( 'not_yet_approved' ) ;
#187 = PERSON_AND_ORGANIZATION ( #150, #156 ) ;
#188 = COORDINATED_UNIVERSAL_TIME_OFFSET ( 5, 0, .BEHIND. ) ;
#189 = CC_DESIGN_SECURITY_CLASSIFICATION ( #195, ( #159 ) ) ;
#190 = CC_DESIGN_APPROVAL ( #185, ( #195 ) ) ;
#191 = PERSON_AND_ORGANIZATION ( #150, #156 ) ;
#192 = CC_DESIGN_PERSON_AND_ORGANIZATION_ASSIGNMENT ( #194, #193, ( #195 ) ) ;
#193 = PERSON_AND_ORGANIZATION_ROLE ( 'classification_officer' ) ;
#194 = PERSON_AND_ORGANIZATION ( #150, #156 ) ;
#195 = SECURITY_CLASSIFICATION ( '', '', #182 ) ;
#196 = CC_DESIGN_APPROVAL ( #167, ( #159 ) ) ;
#197 = APPROVAL_DATE_TIME ( #180, #167 ) ;
#198 = PRODUCT_RELATED_PRODUCT_CATEGORY ( 'detail', '', ( #132 ) ) ;
#199 = PERSON_AND_ORGANIZATION_ROLE ( 'creator' ) ;
#200 = PERSON_AND_ORGANIZATION ( #150, #156 ) ;
#201 = COORDINATED_UNIVERSAL_TIME_OFFSET ( 5, 0, .BEHIND. ) ;
ENDSEC;
END-ISO-10303-21;
