ISO-10303-21;
HEADER;
FILE_DESCRIPTION (( 'STEP AP203' ),
    '1' );
FILE_NAME ('Web Model 47048_48580.step',
    '2017-06-06T16:57:54',
    ( '' ),
    ( '' ),
    'SwSTEP 2.0',
    'SolidWorks 2016',
    '' );
FILE_SCHEMA (( 'CONFIG_CONTROL_DESIGN' ));
ENDSEC;

DATA;
#1 = VERTEX_POINT ( 'NONE', #68 ) ;
#2 = SECURITY_CLASSIFICATION ( '', '', #95 ) ;
#3 = ORIENTED_EDGE ( 'NONE', *, *, #140, .F. ) ;
#4 = VERTEX_POINT ( 'NONE', #42 ) ;
#5 = LOCAL_TIME ( 12, 57, 54.00000000000000000, #224 ) ;
#6 = CALENDAR_DATE ( 2017, 6, 6 ) ;
#7 = CALENDAR_DATE ( 2017, 6, 6 ) ;
#8 = CARTESIAN_POINT ( 'NONE',  ( 12.50000000000000000, 0.0000000000000000000, 12.50000000000000000 ) ) ;
#9 = ORIENTED_EDGE ( 'NONE', *, *, #300, .T. ) ;
#10 = ORIENTED_EDGE ( 'NONE', *, *, #127, .F. ) ;
#11 = PERSON_AND_ORGANIZATION ( #272, #17 ) ;
#12 = CARTESIAN_POINT ( 'NONE',  ( -12.50000000000000000, 12.50000000000000000, 12.50000000000000000 ) ) ;
#13 = PLANE ( 'NONE',  #85 ) ;
#14 = ORIENTED_EDGE ( 'NONE', *, *, #107, .F. ) ;
#15 = DATE_AND_TIME ( #291, #53 ) ;
#16 = CARTESIAN_POINT ( 'NONE',  ( 0.0000000000000000000, 12.50000000000000000, 12.50000000000000000 ) ) ;
#17 = ORGANIZATION ( 'UNSPECIFIED', 'UNSPECIFIED', '' ) ;
#18 = EDGE_CURVE ( 'NONE', #134, #221, #23, .T. ) ;
#19 = CARTESIAN_POINT ( 'NONE',  ( 12.50000000000000000, 0.0000000000000000000, -12.50000000000000000 ) ) ;
#20 = APPROVAL_STATUS ( 'not_yet_approved' ) ;
#21 = APPLICATION_CONTEXT ( 'configuration controlled 3d designs of mechanical parts and assemblies' ) ;
#22 = VECTOR ( 'NONE', #61, 1000.000000000000000 ) ;
#23 = LINE ( 'NONE', #162, #41 ) ;
#24 = CC_DESIGN_PERSON_AND_ORGANIZATION_ASSIGNMENT ( #256, #266, ( #2 ) ) ;
#25 = DIRECTION ( 'NONE',  ( 0.7071067811865474600, -0.7071067811865474600, 0.0000000000000000000 ) ) ;
#26 = UNCERTAINTY_MEASURE_WITH_UNIT (LENGTH_MEASURE( 1.000000000000000100E-005 ), #215, 'distance_accuracy_value', 'NONE');
#27 = APPROVAL_STATUS ( 'not_yet_approved' ) ;
#28 = VECTOR ( 'NONE', #39, 1000.000000000000000 ) ;
#29 = LINE ( 'NONE', #79, #84 ) ;
#30 = ORIENTED_EDGE ( 'NONE', *, *, #173, .T. ) ;
#31 = AXIS2_PLACEMENT_3D ( 'NONE', #262, #123, #208 ) ;
#32 = EDGE_LOOP ( 'NONE', ( #97, #212, #288 ) ) ;
#33 = LOCAL_TIME ( 12, 57, 54.00000000000000000, #168 ) ;
#34 = ADVANCED_FACE ( 'NONE', ( #246 ), #13, .T. ) ;
#35 = EDGE_CURVE ( 'NONE', #1, #4, #40, .T. ) ;
#36 = CARTESIAN_POINT ( 'NONE',  ( 12.50000000000000000, 12.50000000000000000, -12.50000000000000000 ) ) ;
#37 = CARTESIAN_POINT ( 'NONE',  ( -0.0000000000000000000, 12.50000000000000000, -12.50000000000000000 ) ) ;
#38 = CC_DESIGN_DATE_AND_TIME_ASSIGNMENT ( #312, #122, ( #2 ) ) ;
#39 = DIRECTION ( 'NONE',  ( 1.000000000000000000, 0.0000000000000000000, 0.0000000000000000000 ) ) ;
#40 = LINE ( 'NONE', #63, #138 ) ;
#41 = VECTOR ( 'NONE', #305, 1000.000000000000000 ) ;
#42 = CARTESIAN_POINT ( 'NONE',  ( -12.50000000000000000, 12.50000000000000000, -12.50000000000000000 ) ) ;
#43 = ADVANCED_FACE ( 'NONE', ( #213 ), #86, .T. ) ;
#44 = CARTESIAN_POINT ( 'NONE',  ( 0.0000000000000000000, 0.0000000000000000000, 0.0000000000000000000 ) ) ;
#45 = VECTOR ( 'NONE', #165, 1000.000000000000000 ) ;
#46 = ORIENTED_EDGE ( 'NONE', *, *, #255, .F. ) ;
#47 = DATE_TIME_ROLE ( 'creation_date' ) ;
#48 = LINE ( 'NONE', #302, #318 ) ;
#49 =( GEOMETRIC_REPRESENTATION_CONTEXT ( 3 ) GLOBAL_UNCERTAINTY_ASSIGNED_CONTEXT ( ( #26 ) ) GLOBAL_UNIT_ASSIGNED_CONTEXT ( ( #215, #238, #190 ) ) REPRESENTATION_CONTEXT ( 'NONE', 'WORKASPACE' ) );
#50 = DIRECTION ( 'NONE',  ( 1.000000000000000000, 0.0000000000000000000, 0.0000000000000000000 ) ) ;
#51 = CARTESIAN_POINT ( 'NONE',  ( -12.50000000000000000, -12.50000000000000000, 12.50000000000000000 ) ) ;
#52 = PERSON_AND_ORGANIZATION ( #272, #17 ) ;
#53 = LOCAL_TIME ( 12, 57, 54.00000000000000000, #56 ) ;
#54 = DATE_AND_TIME ( #152, #33 ) ;
#55 = APPROVAL ( #290, 'UNSPECIFIED' ) ;
#56 = COORDINATED_UNIVERSAL_TIME_OFFSET ( 5, 0, .BEHIND. ) ;
#57 = LINE ( 'NONE', #279, #177 ) ;
#58 = LINE ( 'NONE', #66, #28 ) ;
#59 = LINE ( 'NONE', #37, #93 ) ;
#60 = FACE_OUTER_BOUND ( 'NONE', #229, .T. ) ;
#61 = DIRECTION ( 'NONE',  ( 0.0000000000000000000, 1.000000000000000000, -0.0000000000000000000 ) ) ;
#62 = AXIS2_PLACEMENT_3D ( 'NONE', #144, #166, #74 ) ;
#63 = CARTESIAN_POINT ( 'NONE',  ( -12.50000000000000000, 0.0000000000000000000, -12.50000000000000000 ) ) ;
#64 = ORIENTED_EDGE ( 'NONE', *, *, #107, .T. ) ;
#65 = VERTEX_POINT ( 'NONE', #36 ) ;
#66 = CARTESIAN_POINT ( 'NONE',  ( 0.0000000000000000000, -12.50000000000000000, 12.50000000000000000 ) ) ;
#67 = PRODUCT_DEFINITION_SHAPE ( 'NONE', 'NONE',  #161 ) ;
#68 = CARTESIAN_POINT ( 'NONE',  ( -12.50000000000000000, -12.50000000000000000, -12.50000000000000000 ) ) ;
#69 = CARTESIAN_POINT ( 'NONE',  ( 12.50000000000000000, -12.50000000000000000, 12.50000000000000000 ) ) ;
#70 = CLOSED_SHELL ( 'NONE', ( #187, #143, #43, #307, #236 ) ) ;
#71 = LINE ( 'NONE', #195, #156 ) ;
#72 = ORIENTED_EDGE ( 'NONE', *, *, #80, .F. ) ;
#73 = PERSON_AND_ORGANIZATION_ROLE ( 'creator' ) ;
#74 = DIRECTION ( 'NONE',  ( 1.000000000000000000, 0.0000000000000000000, 0.0000000000000000000 ) ) ;
#75 = VECTOR ( 'NONE', #317, 1000.000000000000100 ) ;
#76 = CARTESIAN_POINT ( 'NONE',  ( 0.0000000000000000000, 0.0000000000000000000, -12.50000000000000000 ) ) ;
#77 = DATE_AND_TIME ( #6, #5 ) ;
#78 = CC_DESIGN_APPROVAL ( #55, ( #2 ) ) ;
#79 = CARTESIAN_POINT ( 'NONE',  ( -12.50000000000000000, 12.50000000000000000, 12.50000000000000000 ) ) ;
#80 = EDGE_CURVE ( 'NONE', #199, #153, #57, .T. ) ;
#81 = LINE ( 'NONE', #234, #129 ) ;
#82 = FACE_OUTER_BOUND ( 'NONE', #32, .T. ) ;
#83 = FACE_OUTER_BOUND ( 'NONE', #310, .T. ) ;
#84 = VECTOR ( 'NONE', #100, 1000.000000000000000 ) ;
#85 = AXIS2_PLACEMENT_3D ( 'NONE', #201, #136, #110 ) ;
#86 = PLANE ( 'NONE',  #118 ) ;
#87 = PERSON_AND_ORGANIZATION ( #272, #17 ) ;
#88 = DIRECTION ( 'NONE',  ( -0.0000000000000000000, -0.0000000000000000000, -1.000000000000000000 ) ) ;
#89 = CC_DESIGN_SECURITY_CLASSIFICATION ( #2, ( #245 ) ) ;
#90 = DIRECTION ( 'NONE',  ( 0.0000000000000000000, 1.000000000000000000, 0.0000000000000000000 ) ) ;
#91 = EDGE_CURVE ( 'NONE', #134, #155, #230, .T. ) ;
#92 = ADVANCED_FACE ( 'NONE', ( #283 ), #277, .F. ) ;
#93 = VECTOR ( 'NONE', #260, 1000.000000000000000 ) ;
#94 = PLANE ( 'NONE',  #314 ) ;
#95 = SECURITY_CLASSIFICATION_LEVEL ( 'unclassified' ) ;
#96 = VECTOR ( 'NONE', #111, 1000.000000000000100 ) ;
#97 = ORIENTED_EDGE ( 'NONE', *, *, #35, .T. ) ;
#98 = ORIENTED_EDGE ( 'NONE', *, *, #300, .F. ) ;
#99 = DIRECTION ( 'NONE',  ( -0.0000000000000000000, -0.0000000000000000000, -1.000000000000000000 ) ) ;
#100 = DIRECTION ( 'NONE',  ( -0.0000000000000000000, -0.0000000000000000000, -1.000000000000000000 ) ) ;
#101 = DIRECTION ( 'NONE',  ( -1.000000000000000000, 0.0000000000000000000, 0.0000000000000000000 ) ) ;
#102 = EDGE_LOOP ( 'NONE', ( #183, #241, #297, #142 ) ) ;
#103 = APPROVAL_PERSON_ORGANIZATION ( #52, #55, #146 ) ;
#104 = COORDINATED_UNIVERSAL_TIME_OFFSET ( 5, 0, .BEHIND. ) ;
#105 = ORIENTED_EDGE ( 'NONE', *, *, #320, .T. ) ;
#106 = PERSON_AND_ORGANIZATION ( #272, #17 ) ;
#107 = EDGE_CURVE ( 'NONE', #199, #1, #48, .T. ) ;
#108 = EDGE_LOOP ( 'NONE', ( #105, #218, #109, #220 ) ) ;
#109 = ORIENTED_EDGE ( 'NONE', *, *, #91, .F. ) ;
#110 = DIRECTION ( 'NONE',  ( 1.000000000000000000, 0.0000000000000000000, 0.0000000000000000000 ) ) ;
#111 = DIRECTION ( 'NONE',  ( 0.7071067811865474600, -0.7071067811865474600, 0.0000000000000000000 ) ) ;
#112 = LINE ( 'NONE', #164, #96 ) ;
#113 = CARTESIAN_POINT ( 'NONE',  ( 0.0000000000000000000, 12.50000000000000000, 12.50000000000000000 ) ) ;
#114 = VECTOR ( 'NONE', #139, 1000.000000000000000 ) ;
#115 = MANIFOLD_SOLID_BREP ( 'Boss-Extrude3', #222 ) ;
#116 = CARTESIAN_POINT ( 'NONE',  ( 0.0000000000000000000, -12.50000000000000000, -12.50000000000000000 ) ) ;
#117 = CARTESIAN_POINT ( 'NONE',  ( 12.50000000000000000, 12.50000000000000000, 12.50000000000000000 ) ) ;
#118 = AXIS2_PLACEMENT_3D ( 'NONE', #182, #232, #204 ) ;
#119 = EDGE_LOOP ( 'NONE', ( #278, #14, #249, #264 ) ) ;
#120 = VERTEX_POINT ( 'NONE', #163 ) ;
#121 = ORIENTED_EDGE ( 'NONE', *, *, #269, .T. ) ;
#122 = DATE_TIME_ROLE ( 'classification_date' ) ;
#123 = DIRECTION ( 'NONE',  ( -0.0000000000000000000, 0.0000000000000000000, 1.000000000000000000 ) ) ;
#124 = PLANE ( 'NONE',  #252 ) ;
#125 = ORIENTED_EDGE ( 'NONE', *, *, #127, .T. ) ;
#126 = CARTESIAN_POINT ( 'NONE',  ( -12.50000000000000000, 0.0000000000000000000, 12.50000000000000000 ) ) ;
#127 = EDGE_CURVE ( 'NONE', #199, #178, #58, .T. ) ;
#128 = ORIENTED_EDGE ( 'NONE', *, *, #219, .F. ) ;
#129 = VECTOR ( 'NONE', #294, 1000.000000000000100 ) ;
#130 = ORIENTED_EDGE ( 'NONE', *, *, #186, .F. ) ;
#131 = DESIGN_CONTEXT ( 'detailed design', #167, 'design' ) ;
#132 = AXIS2_PLACEMENT_3D ( 'NONE', #44, #287, #145 ) ;
#133 = EDGE_LOOP ( 'NONE', ( #72, #125, #282 ) ) ;
#134 = VERTEX_POINT ( 'NONE', #205 ) ;
#135 = CARTESIAN_POINT ( 'NONE',  ( 12.50000000000000000, 0.0000000000000000000, 12.50000000000000000 ) ) ;
#136 = DIRECTION ( 'NONE',  ( -0.0000000000000000000, 0.0000000000000000000, 1.000000000000000000 ) ) ;
#137 = ORIENTED_EDGE ( 'NONE', *, *, #235, .F. ) ;
#138 = VECTOR ( 'NONE', #231, 1000.000000000000000 ) ;
#139 = DIRECTION ( 'NONE',  ( 1.000000000000000000, 0.0000000000000000000, 0.0000000000000000000 ) ) ;
#140 = EDGE_CURVE ( 'NONE', #239, #65, #59, .T. ) ;
#141 = DIRECTION ( 'NONE',  ( 0.0000000000000000000, 1.000000000000000000, 0.0000000000000000000 ) ) ;
#142 = ORIENTED_EDGE ( 'NONE', *, *, #235, .T. ) ;
#143 = ADVANCED_FACE ( 'NONE', ( #254 ), #200, .F. ) ;
#144 = CARTESIAN_POINT ( 'NONE',  ( 0.0000000000000000000, 0.0000000000000000000, 12.50000000000000000 ) ) ;
#145 = DIRECTION ( 'NONE',  ( 1.000000000000000000, 0.0000000000000000000, 0.0000000000000000000 ) ) ;
#146 = APPROVAL_ROLE ( '' ) ;
#147 = CC_DESIGN_PERSON_AND_ORGANIZATION_ASSIGNMENT ( #295, #170, ( #211 ) ) ;
#148 = FACE_OUTER_BOUND ( 'NONE', #133, .T. ) ;
#149 = DIRECTION ( 'NONE',  ( 0.7071067811865475700, 0.7071067811865475700, -0.0000000000000000000 ) ) ;
#150 = CARTESIAN_POINT ( 'NONE',  ( 12.50000000000000000, -12.50000000000000000, -12.50000000000000000 ) ) ;
#151 = PLANE ( 'NONE',  #209 ) ;
#152 = CALENDAR_DATE ( 2017, 6, 6 ) ;
#153 = VERTEX_POINT ( 'NONE', #12 ) ;
#154 = AXIS2_PLACEMENT_3D ( 'NONE', #135, #258, #228 ) ;
#155 = VERTEX_POINT ( 'NONE', #261 ) ;
#156 = VECTOR ( 'NONE', #25, 1000.000000000000100 ) ;
#157 = EDGE_CURVE ( 'NONE', #120, #134, #112, .T. ) ;
#158 = VECTOR ( 'NONE', #267, 1000.000000000000000 ) ;
#159 = ORIENTED_EDGE ( 'NONE', *, *, #198, .T. ) ;
#160 = LINE ( 'NONE', #117, #227 ) ;
#161 = PRODUCT_DEFINITION ( 'UNKNOWN', '', #245, #131 ) ;
#162 = CARTESIAN_POINT ( 'NONE',  ( 12.50000000000000000, -12.50000000000000000, 12.50000000000000000 ) ) ;
#163 = CARTESIAN_POINT ( 'NONE',  ( -12.50000000000000000, 12.50000000000000000, 12.50000000000000000 ) ) ;
#164 = CARTESIAN_POINT ( 'NONE',  ( 0.0000000000000000000, 0.0000000000000000000, 12.50000000000000000 ) ) ;
#165 = DIRECTION ( 'NONE',  ( -0.0000000000000000000, -0.0000000000000000000, -1.000000000000000000 ) ) ;
#166 = DIRECTION ( 'NONE',  ( -0.0000000000000000000, 0.0000000000000000000, 1.000000000000000000 ) ) ;
#167 = APPLICATION_CONTEXT ( 'configuration controlled 3d designs of mechanical parts and assemblies' ) ;
#168 = COORDINATED_UNIVERSAL_TIME_OFFSET ( 5, 0, .BEHIND. ) ;
#169 = EDGE_LOOP ( 'NONE', ( #128, #46, #159, #9 ) ) ;
#170 = PERSON_AND_ORGANIZATION_ROLE ( 'design_owner' ) ;
#171 = CARTESIAN_POINT ( 'NONE',  ( 0.0000000000000000000, 0.0000000000000000000, 12.50000000000000000 ) ) ;
#172 = APPROVAL_ROLE ( '' ) ;
#173 = EDGE_CURVE ( 'NONE', #120, #155, #316, .T. ) ;
#174 = VERTEX_POINT ( 'NONE', #233 ) ;
#175 = LINE ( 'NONE', #308, #45 ) ;
#176 = APPROVAL ( #20, 'UNSPECIFIED' ) ;
#177 = VECTOR ( 'NONE', #181, 1000.000000000000000 ) ;
#178 = VERTEX_POINT ( 'NONE', #184 ) ;
#179 = AXIS2_PLACEMENT_3D ( 'NONE', #280, #90, #306 ) ;
#180 = LINE ( 'NONE', #19, #193 ) ;
#181 = DIRECTION ( 'NONE',  ( 0.0000000000000000000, 1.000000000000000000, -0.0000000000000000000 ) ) ;
#182 = CARTESIAN_POINT ( 'NONE',  ( 0.0000000000000000000, 0.0000000000000000000, 12.50000000000000000 ) ) ;
#183 = ORIENTED_EDGE ( 'NONE', *, *, #186, .T. ) ;
#184 = CARTESIAN_POINT ( 'NONE',  ( 12.50000000000000000, -12.50000000000000000, 12.50000000000000000 ) ) ;
#185 = PRODUCT_RELATED_PRODUCT_CATEGORY ( 'detail', '', ( #211 ) ) ;
#186 = EDGE_CURVE ( 'NONE', #239, #221, #81, .T. ) ;
#187 = ADVANCED_FACE ( 'NONE', ( #275 ), #151, .T. ) ;
#188 = COORDINATED_UNIVERSAL_TIME_OFFSET ( 5, 0, .BEHIND. ) ;
#189 = PERSON_AND_ORGANIZATION_ROLE ( 'creator' ) ;
#190 =( NAMED_UNIT ( * ) SI_UNIT ( $, .STERADIAN. ) SOLID_ANGLE_UNIT ( ) );
#191 = CC_DESIGN_APPROVAL ( #176, ( #161 ) ) ;
#192 = PLANE ( 'NONE',  #276 ) ;
#193 = VECTOR ( 'NONE', #309, 1000.000000000000000 ) ;
#194 = LINE ( 'NONE', #268, #75 ) ;
#195 = CARTESIAN_POINT ( 'NONE',  ( 0.0000000000000000000, 0.0000000000000000000, 12.50000000000000000 ) ) ;
#196 = FACE_OUTER_BOUND ( 'NONE', #102, .T. ) ;
#197 = DATE_AND_TIME ( #226, #274 ) ;
#198 = EDGE_CURVE ( 'NONE', #153, #178, #71, .T. ) ;
#199 = VERTEX_POINT ( 'NONE', #51 ) ;
#200 = PLANE ( 'NONE',  #179 ) ;
#201 = CARTESIAN_POINT ( 'NONE',  ( 0.0000000000000000000, 0.0000000000000000000, 12.50000000000000000 ) ) ;
#202 = CC_DESIGN_PERSON_AND_ORGANIZATION_ASSIGNMENT ( #87, #189, ( #161 ) ) ;
#203 = LINE ( 'NONE', #69, #158 ) ;
#204 = DIRECTION ( 'NONE',  ( -0.7071067811865474600, 0.7071067811865474600, 0.0000000000000000000 ) ) ;
#205 = CARTESIAN_POINT ( 'NONE',  ( 12.50000000000000000, -12.50000000000000000, 12.50000000000000000 ) ) ;
#206 = DIRECTION ( 'NONE',  ( 1.000000000000000000, 0.0000000000000000000, 0.0000000000000000000 ) ) ;
#207 = ORIENTED_EDGE ( 'NONE', *, *, #91, .T. ) ;
#208 = DIRECTION ( 'NONE',  ( 1.000000000000000000, 0.0000000000000000000, 0.0000000000000000000 ) ) ;
#209 = AXIS2_PLACEMENT_3D ( 'NONE', #126, #101, #247 ) ;
#210 = APPROVAL_ROLE ( '' ) ;
#211 = PRODUCT ( 'Web Model 47048_48580', 'Web Model 47048_48580', '', ( #313 ) ) ;
#212 = ORIENTED_EDGE ( 'NONE', *, *, #219, .T. ) ;
#213 = FACE_OUTER_BOUND ( 'NONE', #169, .T. ) ;
#214 = ORIENTED_EDGE ( 'NONE', *, *, #157, .T. ) ;
#215 =( LENGTH_UNIT ( ) NAMED_UNIT ( * ) SI_UNIT ( .MILLI., .METRE. ) );
#216 = DIRECTION ( 'NONE',  ( -0.0000000000000000000, 0.0000000000000000000, 1.000000000000000000 ) ) ;
#217 = CARTESIAN_POINT ( 'NONE',  ( -12.50000000000000000, 12.50000000000000000, -12.50000000000000000 ) ) ;
#218 = ORIENTED_EDGE ( 'NONE', *, *, #286, .F. ) ;
#219 = EDGE_CURVE ( 'NONE', #4, #174, #194, .T. ) ;
#220 = ORIENTED_EDGE ( 'NONE', *, *, #18, .T. ) ;
#221 = VERTEX_POINT ( 'NONE', #150 ) ;
#222 = CLOSED_SHELL ( 'NONE', ( #253, #92, #263, #34, #284 ) ) ;
#223 = CC_DESIGN_DATE_AND_TIME_ASSIGNMENT ( #197, #47, ( #161 ) ) ;
#224 = COORDINATED_UNIVERSAL_TIME_OFFSET ( 5, 0, .BEHIND. ) ;
#225 = PERSON_AND_ORGANIZATION ( #272, #17 ) ;
#226 = CALENDAR_DATE ( 2017, 6, 6 ) ;
#227 = VECTOR ( 'NONE', #99, 1000.000000000000000 ) ;
#228 = DIRECTION ( 'NONE',  ( 0.0000000000000000000, 0.0000000000000000000, 1.000000000000000000 ) ) ;
#229 = EDGE_LOOP ( 'NONE', ( #130, #321, #240 ) ) ;
#230 = LINE ( 'NONE', #8, #22 ) ;
#231 = DIRECTION ( 'NONE',  ( 0.0000000000000000000, 1.000000000000000000, -0.0000000000000000000 ) ) ;
#232 = DIRECTION ( 'NONE',  ( 0.7071067811865475700, 0.7071067811865475700, -0.0000000000000000000 ) ) ;
#233 = CARTESIAN_POINT ( 'NONE',  ( 12.50000000000000000, -12.50000000000000000, -12.50000000000000000 ) ) ;
#234 = CARTESIAN_POINT ( 'NONE',  ( -0.0000000000000000000, 0.0000000000000000000, -12.50000000000000000 ) ) ;
#235 = EDGE_CURVE ( 'NONE', #120, #239, #29, .T. ) ;
#236 = ADVANCED_FACE ( 'NONE', ( #82 ), #124, .F. ) ;
#237 = PLANE ( 'NONE',  #31 ) ;
#238 =( NAMED_UNIT ( * ) PLANE_ANGLE_UNIT ( ) SI_UNIT ( $, .RADIAN. ) );
#239 = VERTEX_POINT ( 'NONE', #217 ) ;
#240 = ORIENTED_EDGE ( 'NONE', *, *, #320, .F. ) ;
#241 = ORIENTED_EDGE ( 'NONE', *, *, #18, .F. ) ;
#242 = ORIENTED_EDGE ( 'NONE', *, *, #173, .F. ) ;
#243 = PERSON_AND_ORGANIZATION_ROLE ( 'design_supplier' ) ;
#244 = PLANE ( 'NONE',  #62 ) ;
#245 = PRODUCT_DEFINITION_FORMATION_WITH_SPECIFIED_SOURCE ( 'ANY', '', #211, .NOT_KNOWN. ) ;
#246 = FACE_OUTER_BOUND ( 'NONE', #250, .T. ) ;
#247 = DIRECTION ( 'NONE',  ( 0.0000000000000000000, 0.0000000000000000000, 1.000000000000000000 ) ) ;
#248 = LOCAL_TIME ( 12, 57, 54.00000000000000000, #188 ) ;
#249 = ORIENTED_EDGE ( 'NONE', *, *, #80, .T. ) ;
#250 = EDGE_LOOP ( 'NONE', ( #214, #207, #242 ) ) ;
#251 = SHAPE_DEFINITION_REPRESENTATION ( #67, #281 ) ;
#252 = AXIS2_PLACEMENT_3D ( 'NONE', #76, #216, #50 ) ;
#253 = ADVANCED_FACE ( 'NONE', ( #196 ), #192, .F. ) ;
#254 = FACE_OUTER_BOUND ( 'NONE', #311, .T. ) ;
#255 = EDGE_CURVE ( 'NONE', #153, #4, #175, .T. ) ;
#256 = PERSON_AND_ORGANIZATION ( #272, #17 ) ;
#257 = APPROVAL_DATE_TIME ( #15, #259 ) ;
#258 = DIRECTION ( 'NONE',  ( -1.000000000000000000, 0.0000000000000000000, 0.0000000000000000000 ) ) ;
#259 = APPROVAL ( #27, 'UNSPECIFIED' ) ;
#260 = DIRECTION ( 'NONE',  ( 1.000000000000000000, 0.0000000000000000000, 0.0000000000000000000 ) ) ;
#261 = CARTESIAN_POINT ( 'NONE',  ( 12.50000000000000000, 12.50000000000000000, 12.50000000000000000 ) ) ;
#262 = CARTESIAN_POINT ( 'NONE',  ( 0.0000000000000000000, 0.0000000000000000000, -12.50000000000000000 ) ) ;
#263 = ADVANCED_FACE ( 'NONE', ( #83 ), #94, .T. ) ;
#264 = ORIENTED_EDGE ( 'NONE', *, *, #255, .T. ) ;
#265 = APPLICATION_PROTOCOL_DEFINITION ( 'international standard', 'config_control_design', 1994, #21 ) ;
#266 = PERSON_AND_ORGANIZATION_ROLE ( 'classification_officer' ) ;
#267 = DIRECTION ( 'NONE',  ( -0.0000000000000000000, -0.0000000000000000000, -1.000000000000000000 ) ) ;
#268 = CARTESIAN_POINT ( 'NONE',  ( -0.0000000000000000000, 0.0000000000000000000, -12.50000000000000000 ) ) ;
#269 = EDGE_CURVE ( 'NONE', #1, #174, #296, .T. ) ;
#270 = APPROVAL_DATE_TIME ( #54, #176 ) ;
#271 = CC_DESIGN_APPROVAL ( #259, ( #245 ) ) ;
#272 = PERSON ( 'UNSPECIFIED', 'UNSPECIFIED', 'UNSPECIFIED', ('UNSPECIFIED'), ('UNSPECIFIED'), ('UNSPECIFIED') ) ;
#273 = APPROVAL_PERSON_ORGANIZATION ( #11, #259, #210 ) ;
#274 = LOCAL_TIME ( 12, 57, 54.00000000000000000, #104 ) ;
#275 = FACE_OUTER_BOUND ( 'NONE', #119, .T. ) ;
#276 = AXIS2_PLACEMENT_3D ( 'NONE', #171, #149, #292 ) ;
#277 = PLANE ( 'NONE',  #154 ) ;
#278 = ORIENTED_EDGE ( 'NONE', *, *, #35, .F. ) ;
#279 = CARTESIAN_POINT ( 'NONE',  ( -12.50000000000000000, 0.0000000000000000000, 12.50000000000000000 ) ) ;
#280 = CARTESIAN_POINT ( 'NONE',  ( 0.0000000000000000000, -12.50000000000000000, 12.50000000000000000 ) ) ;
#281 = ADVANCED_BREP_SHAPE_REPRESENTATION ( 'Web Model 47048_48580', ( #319, #115, #132 ), #49 ) ;
#282 = ORIENTED_EDGE ( 'NONE', *, *, #198, .F. ) ;
#283 = FACE_OUTER_BOUND ( 'NONE', #108, .T. ) ;
#284 = ADVANCED_FACE ( 'NONE', ( #60 ), #237, .F. ) ;
#285 = DIRECTION ( 'NONE',  ( 0.0000000000000000000, -0.0000000000000000000, 1.000000000000000000 ) ) ;
#286 = EDGE_CURVE ( 'NONE', #155, #65, #160, .T. ) ;
#287 = DIRECTION ( 'NONE',  ( 0.0000000000000000000, 0.0000000000000000000, 1.000000000000000000 ) ) ;
#288 = ORIENTED_EDGE ( 'NONE', *, *, #269, .F. ) ;
#289 = VECTOR ( 'NONE', #206, 1000.000000000000000 ) ;
#290 = APPROVAL_STATUS ( 'not_yet_approved' ) ;
#291 = CALENDAR_DATE ( 2017, 6, 6 ) ;
#292 = DIRECTION ( 'NONE',  ( -0.7071067811865474600, 0.7071067811865474600, 0.0000000000000000000 ) ) ;
#293 = CC_DESIGN_PERSON_AND_ORGANIZATION_ASSIGNMENT ( #298, #73, ( #245 ) ) ;
#294 = DIRECTION ( 'NONE',  ( 0.7071067811865474600, -0.7071067811865474600, 0.0000000000000000000 ) ) ;
#295 = PERSON_AND_ORGANIZATION ( #272, #17 ) ;
#296 = LINE ( 'NONE', #116, #289 ) ;
#297 = ORIENTED_EDGE ( 'NONE', *, *, #157, .F. ) ;
#298 = PERSON_AND_ORGANIZATION ( #272, #17 ) ;
#299 = APPROVAL_DATE_TIME ( #77, #55 ) ;
#300 = EDGE_CURVE ( 'NONE', #178, #174, #203, .T. ) ;
#301 = APPROVAL_PERSON_ORGANIZATION ( #225, #176, #172 ) ;
#302 = CARTESIAN_POINT ( 'NONE',  ( -12.50000000000000000, -12.50000000000000000, 12.50000000000000000 ) ) ;
#303 = CC_DESIGN_PERSON_AND_ORGANIZATION_ASSIGNMENT ( #106, #243, ( #245 ) ) ;
#304 = ORIENTED_EDGE ( 'NONE', *, *, #286, .T. ) ;
#305 = DIRECTION ( 'NONE',  ( -0.0000000000000000000, -0.0000000000000000000, -1.000000000000000000 ) ) ;
#306 = DIRECTION ( 'NONE',  ( 0.0000000000000000000, -0.0000000000000000000, 1.000000000000000000 ) ) ;
#307 = ADVANCED_FACE ( 'NONE', ( #148 ), #244, .T. ) ;
#308 = CARTESIAN_POINT ( 'NONE',  ( -12.50000000000000000, 12.50000000000000000, 12.50000000000000000 ) ) ;
#309 = DIRECTION ( 'NONE',  ( 0.0000000000000000000, 1.000000000000000000, -0.0000000000000000000 ) ) ;
#310 = EDGE_LOOP ( 'NONE', ( #3, #137, #30, #304 ) ) ;
#311 = EDGE_LOOP ( 'NONE', ( #121, #98, #10, #64 ) ) ;
#312 = DATE_AND_TIME ( #7, #248 ) ;
#313 = MECHANICAL_CONTEXT ( 'NONE', #21, 'mechanical' ) ;
#314 = AXIS2_PLACEMENT_3D ( 'NONE', #16, #141, #285 ) ;
#315 = APPLICATION_PROTOCOL_DEFINITION ( 'international standard', 'config_control_design', 1994, #167 ) ;
#316 = LINE ( 'NONE', #113, #114 ) ;
#317 = DIRECTION ( 'NONE',  ( 0.7071067811865474600, -0.7071067811865474600, 0.0000000000000000000 ) ) ;
#318 = VECTOR ( 'NONE', #88, 1000.000000000000000 ) ;
#319 = MANIFOLD_SOLID_BREP ( 'Boss-Extrude2', #70 ) ;
#320 = EDGE_CURVE ( 'NONE', #221, #65, #180, .T. ) ;
#321 = ORIENTED_EDGE ( 'NONE', *, *, #140, .T. ) ;
ENDSEC;
END-ISO-10303-21;
