ISO-10303-21;
HEADER;
FILE_DESCRIPTION (( 'STEP AP203' ),
    '1' );
FILE_NAME ('Web Model 45311_45311.step',
    '2019-01-07T15:41:25',
    ( '' ),
    ( '' ),
    'SwSTEP 2.0',
    'SolidWorks 2016',
    '' );
FILE_SCHEMA (( 'CONFIG_CONTROL_DESIGN' ));
ENDSEC;

DATA;
#1 = LOCAL_TIME ( 10, 41, 25.00000000000000000, #170 ) ;
#2 = DIRECTION ( 'NONE',  ( -0.0000000000000000000, -0.0000000000000000000, -1.000000000000000000 ) ) ;
#3 = DIRECTION ( 'NONE',  ( -0.0000000000000000000, -0.0000000000000000000, -1.000000000000000000 ) ) ;
#4 = CC_DESIGN_DATE_AND_TIME_ASSIGNMENT ( #110, #70, ( #74 ) ) ;
#5 = APPROVAL_PERSON_ORGANIZATION ( #78, #124, #31 ) ;
#6 = APPROVAL_STATUS ( 'not_yet_approved' ) ;
#7 =( LENGTH_UNIT ( ) NAMED_UNIT ( * ) SI_UNIT ( .MILLI., .METRE. ) );
#8 = APPROVAL_PERSON_ORGANIZATION ( #113, #17, #18 ) ;
#9 = CALENDAR_DATE ( 2019, 7, 1 ) ;
#10 = ORIENTED_EDGE ( 'NONE', *, *, #37, .F. ) ;
#11 = AXIS2_PLACEMENT_3D ( 'NONE', #126, #3, #145 ) ;
#12 = EDGE_LOOP ( 'NONE', ( #173, #165 ) ) ;
#13 = ADVANCED_FACE ( 'NONE', ( #81 ), #163, .T. ) ;
#14 = CARTESIAN_POINT ( 'NONE',  ( 0.0000000000000000000, 0.0000000000000000000, 1.000000000000000000 ) ) ;
#15 = CARTESIAN_POINT ( 'NONE',  ( 0.0000000000000000000, 0.0000000000000000000, -1.000000000000000000 ) ) ;
#16 =( NAMED_UNIT ( * ) PLANE_ANGLE_UNIT ( ) SI_UNIT ( $, .RADIAN. ) );
#17 = APPROVAL ( #20, 'UNSPECIFIED' ) ;
#18 = APPROVAL_ROLE ( '' ) ;
#19 = CALENDAR_DATE ( 2019, 7, 1 ) ;
#20 = APPROVAL_STATUS ( 'not_yet_approved' ) ;
#21 = CIRCLE ( 'NONE', #95, 12.50000000000000000 ) ;
#22 =( NAMED_UNIT ( * ) SI_UNIT ( $, .STERADIAN. ) SOLID_ANGLE_UNIT ( ) );
#23 = CC_DESIGN_PERSON_AND_ORGANIZATION_ASSIGNMENT ( #133, #66, ( #68 ) ) ;
#24 = CC_DESIGN_APPROVAL ( #168, ( #68 ) ) ;
#25 = LOCAL_TIME ( 10, 41, 25.00000000000000000, #101 ) ;
#26 = PRODUCT_DEFINITION_FORMATION_WITH_SPECIFIED_SOURCE ( 'ANY', '', #125, .NOT_KNOWN. ) ;
#27 = ORIENTED_EDGE ( 'NONE', *, *, #73, .F. ) ;
#28 = DIRECTION ( 'NONE',  ( -0.0000000000000000000, -0.0000000000000000000, -1.000000000000000000 ) ) ;
#29 = DIRECTION ( 'NONE',  ( 1.000000000000000000, 0.0000000000000000000, 0.0000000000000000000 ) ) ;
#30 = ADVANCED_FACE ( 'NONE', ( #103 ), #53, .F. ) ;
#31 = APPROVAL_ROLE ( '' ) ;
#32 = CYLINDRICAL_SURFACE ( 'NONE', #122, 12.50000000000000000 ) ;
#33 = SECURITY_CLASSIFICATION_LEVEL ( 'unclassified' ) ;
#34 = MECHANICAL_CONTEXT ( 'NONE', #79, 'mechanical' ) ;
#35 = APPLICATION_CONTEXT ( 'configuration controlled 3d designs of mechanical parts and assemblies' ) ;
#36 = AXIS2_PLACEMENT_3D ( 'NONE', #14, #148, #129 ) ;
#37 = EDGE_CURVE ( 'NONE', #83, #143, #140, .T. ) ;
#38 = DATE_AND_TIME ( #97, #1 ) ;
#39 = ORIENTED_EDGE ( 'NONE', *, *, #73, .T. ) ;
#40 = LOCAL_TIME ( 10, 41, 25.00000000000000000, #92 ) ;
#41 = ORIENTED_EDGE ( 'NONE', *, *, #118, .F. ) ;
#42 = CARTESIAN_POINT ( 'NONE',  ( 0.0000000000000000000, 0.0000000000000000000, 1.000000000000000000 ) ) ;
#43 = DIRECTION ( 'NONE',  ( 0.0000000000000000000, 0.0000000000000000000, 1.000000000000000000 ) ) ;
#44 = CARTESIAN_POINT ( 'NONE',  ( 0.0000000000000000000, 0.0000000000000000000, 0.0000000000000000000 ) ) ;
#45 = PERSON_AND_ORGANIZATION ( #159, #67 ) ;
#46 = ADVANCED_FACE ( 'NONE', ( #135 ), #32, .T. ) ;
#47 = PERSON_AND_ORGANIZATION_ROLE ( 'classification_officer' ) ;
#48 = COORDINATED_UNIVERSAL_TIME_OFFSET ( 5, 0, .BEHIND. ) ;
#49 = CC_DESIGN_APPROVAL ( #124, ( #74 ) ) ;
#50 = ORIENTED_EDGE ( 'NONE', *, *, #142, .F. ) ;
#51 = CARTESIAN_POINT ( 'NONE',  ( 12.50000000000000000, 1.530808498934191500E-015, 1.000000000000000000 ) ) ;
#52 = ADVANCED_BREP_SHAPE_REPRESENTATION ( 'Web Model 45311_45311', ( #153, #90 ), #141 ) ;
#53 = PLANE ( 'NONE',  #119 ) ;
#54 = CALENDAR_DATE ( 2019, 7, 1 ) ;
#55 = DIRECTION ( 'NONE',  ( -1.000000000000000000, 0.0000000000000000000, 0.0000000000000000000 ) ) ;
#56 = APPROVAL_DATE_TIME ( #138, #124 ) ;
#57 = PERSON_AND_ORGANIZATION_ROLE ( 'creator' ) ;
#58 = ORIENTED_EDGE ( 'NONE', *, *, #149, .T. ) ;
#59 = APPLICATION_PROTOCOL_DEFINITION ( 'international standard', 'config_control_design', 1994, #79 ) ;
#60 = APPROVAL_STATUS ( 'not_yet_approved' ) ;
#61 = CIRCLE ( 'NONE', #36, 12.50000000000000000 ) ;
#62 = CARTESIAN_POINT ( 'NONE',  ( 0.0000000000000000000, 0.0000000000000000000, -1.000000000000000000 ) ) ;
#63 = ORIENTED_EDGE ( 'NONE', *, *, #106, .T. ) ;
#64 = CARTESIAN_POINT ( 'NONE',  ( -12.50000000000000000, 0.0000000000000000000, 1.000000000000000000 ) ) ;
#65 = CARTESIAN_POINT ( 'NONE',  ( -12.50000000000000000, 0.0000000000000000000, 1.000000000000000000 ) ) ;
#66 = PERSON_AND_ORGANIZATION_ROLE ( 'creator' ) ;
#67 = ORGANIZATION ( 'UNSPECIFIED', 'UNSPECIFIED', '' ) ;
#68 = PRODUCT_DEFINITION ( 'UNKNOWN', '', #26, #69 ) ;
#69 = DESIGN_CONTEXT ( 'detailed design', #35, 'design' ) ;
#70 = DATE_TIME_ROLE ( 'classification_date' ) ;
#71 = PERSON_AND_ORGANIZATION ( #159, #67 ) ;
#72 = LINE ( 'NONE', #64, #157 ) ;
#73 = EDGE_CURVE ( 'NONE', #93, #91, #21, .T. ) ;
#74 = SECURITY_CLASSIFICATION ( '', '', #33 ) ;
#75 = DIRECTION ( 'NONE',  ( 0.0000000000000000000, 0.0000000000000000000, 1.000000000000000000 ) ) ;
#76 = CARTESIAN_POINT ( 'NONE',  ( 0.0000000000000000000, 0.0000000000000000000, 1.000000000000000000 ) ) ;
#77 = ADVANCED_FACE ( 'NONE', ( #123 ), #94, .T. ) ;
#78 = PERSON_AND_ORGANIZATION ( #159, #67 ) ;
#79 = APPLICATION_CONTEXT ( 'configuration controlled 3d designs of mechanical parts and assemblies' ) ;
#80 = DATE_AND_TIME ( #19, #156 ) ;
#81 = FACE_OUTER_BOUND ( 'NONE', #12, .T. ) ;
#82 = UNCERTAINTY_MEASURE_WITH_UNIT (LENGTH_MEASURE( 1.000000000000000100E-005 ), #7, 'distance_accuracy_value', 'NONE');
#83 = VERTEX_POINT ( 'NONE', #65 ) ;
#84 = DIRECTION ( 'NONE',  ( 0.0000000000000000000, 0.0000000000000000000, 1.000000000000000000 ) ) ;
#85 = EDGE_LOOP ( 'NONE', ( #41, #63, #39, #50 ) ) ;
#86 = CARTESIAN_POINT ( 'NONE',  ( 12.50000000000000000, 1.530808498934191500E-015, -1.000000000000000000 ) ) ;
#87 = CARTESIAN_POINT ( 'NONE',  ( 0.0000000000000000000, 0.0000000000000000000, 1.000000000000000000 ) ) ;
#88 = DATE_TIME_ROLE ( 'creation_date' ) ;
#89 = CIRCLE ( 'NONE', #132, 12.50000000000000000 ) ;
#90 = AXIS2_PLACEMENT_3D ( 'NONE', #44, #112, #166 ) ;
#91 = VERTEX_POINT ( 'NONE', #128 ) ;
#92 = COORDINATED_UNIVERSAL_TIME_OFFSET ( 5, 0, .BEHIND. ) ;
#93 = VERTEX_POINT ( 'NONE', #86 ) ;
#94 = CYLINDRICAL_SURFACE ( 'NONE', #11, 12.50000000000000000 ) ;
#95 = AXIS2_PLACEMENT_3D ( 'NONE', #62, #84, #29 ) ;
#96 = PERSON_AND_ORGANIZATION ( #159, #67 ) ;
#97 = CALENDAR_DATE ( 2019, 7, 1 ) ;
#98 = CC_DESIGN_APPROVAL ( #17, ( #26 ) ) ;
#99 = PERSON_AND_ORGANIZATION ( #159, #67 ) ;
#100 = DIRECTION ( 'NONE',  ( 1.000000000000000000, 0.0000000000000000000, -0.0000000000000000000 ) ) ;
#101 = COORDINATED_UNIVERSAL_TIME_OFFSET ( 5, 0, .BEHIND. ) ;
#102 = LINE ( 'NONE', #130, #127 ) ;
#103 = FACE_OUTER_BOUND ( 'NONE', #120, .T. ) ;
#104 = APPLICATION_PROTOCOL_DEFINITION ( 'international standard', 'config_control_design', 1994, #35 ) ;
#105 = CC_DESIGN_DATE_AND_TIME_ASSIGNMENT ( #80, #88, ( #68 ) ) ;
#106 = EDGE_CURVE ( 'NONE', #143, #93, #102, .T. ) ;
#107 = CC_DESIGN_SECURITY_CLASSIFICATION ( #74, ( #26 ) ) ;
#108 = DATE_AND_TIME ( #54, #25 ) ;
#109 = CC_DESIGN_PERSON_AND_ORGANIZATION_ASSIGNMENT ( #99, #115, ( #125 ) ) ;
#110 = DATE_AND_TIME ( #164, #169 ) ;
#111 = EDGE_LOOP ( 'NONE', ( #121, #10, #116, #58 ) ) ;
#112 = DIRECTION ( 'NONE',  ( 0.0000000000000000000, 0.0000000000000000000, 1.000000000000000000 ) ) ;
#113 = PERSON_AND_ORGANIZATION ( #159, #67 ) ;
#114 = AXIS2_PLACEMENT_3D ( 'NONE', #42, #75, #162 ) ;
#115 = PERSON_AND_ORGANIZATION_ROLE ( 'design_owner' ) ;
#116 = ORIENTED_EDGE ( 'NONE', *, *, #142, .T. ) ;
#117 = CARTESIAN_POINT ( 'NONE',  ( 0.0000000000000000000, 0.0000000000000000000, -1.000000000000000000 ) ) ;
#118 = EDGE_CURVE ( 'NONE', #143, #83, #61, .T. ) ;
#119 = AXIS2_PLACEMENT_3D ( 'NONE', #15, #146, #147 ) ;
#120 = EDGE_LOOP ( 'NONE', ( #151, #27 ) ) ;
#121 = ORIENTED_EDGE ( 'NONE', *, *, #106, .F. ) ;
#122 = AXIS2_PLACEMENT_3D ( 'NONE', #76, #2, #55 ) ;
#123 = FACE_OUTER_BOUND ( 'NONE', #85, .T. ) ;
#124 = APPROVAL ( #6, 'UNSPECIFIED' ) ;
#125 = PRODUCT ( 'Web Model 45311_45311', 'Web Model 45311_45311', '', ( #34 ) ) ;
#126 = CARTESIAN_POINT ( 'NONE',  ( 0.0000000000000000000, 0.0000000000000000000, 1.000000000000000000 ) ) ;
#127 = VECTOR ( 'NONE', #28, 1000.000000000000000 ) ;
#128 = CARTESIAN_POINT ( 'NONE',  ( -12.50000000000000000, 0.0000000000000000000, -1.000000000000000000 ) ) ;
#129 = DIRECTION ( 'NONE',  ( 1.000000000000000000, 0.0000000000000000000, 0.0000000000000000000 ) ) ;
#130 = CARTESIAN_POINT ( 'NONE',  ( 12.50000000000000000, 1.530808498934191500E-015, 1.000000000000000000 ) ) ;
#131 = APPROVAL_DATE_TIME ( #108, #17 ) ;
#132 = AXIS2_PLACEMENT_3D ( 'NONE', #117, #152, #134 ) ;
#133 = PERSON_AND_ORGANIZATION ( #159, #67 ) ;
#134 = DIRECTION ( 'NONE',  ( 1.000000000000000000, 0.0000000000000000000, 0.0000000000000000000 ) ) ;
#135 = FACE_OUTER_BOUND ( 'NONE', #111, .T. ) ;
#136 = PERSON_AND_ORGANIZATION_ROLE ( 'design_supplier' ) ;
#137 = PRODUCT_RELATED_PRODUCT_CATEGORY ( 'detail', '', ( #125 ) ) ;
#138 = DATE_AND_TIME ( #9, #40 ) ;
#139 = APPROVAL_PERSON_ORGANIZATION ( #71, #168, #150 ) ;
#140 = CIRCLE ( 'NONE', #114, 12.50000000000000000 ) ;
#141 =( GEOMETRIC_REPRESENTATION_CONTEXT ( 3 ) GLOBAL_UNCERTAINTY_ASSIGNED_CONTEXT ( ( #82 ) ) GLOBAL_UNIT_ASSIGNED_CONTEXT ( ( #7, #16, #22 ) ) REPRESENTATION_CONTEXT ( 'NONE', 'WORKASPACE' ) );
#142 = EDGE_CURVE ( 'NONE', #83, #91, #72, .T. ) ;
#143 = VERTEX_POINT ( 'NONE', #51 ) ;
#144 = SHAPE_DEFINITION_REPRESENTATION ( #171, #52 ) ;
#145 = DIRECTION ( 'NONE',  ( -1.000000000000000000, 0.0000000000000000000, 0.0000000000000000000 ) ) ;
#146 = DIRECTION ( 'NONE',  ( 0.0000000000000000000, 0.0000000000000000000, 1.000000000000000000 ) ) ;
#147 = DIRECTION ( 'NONE',  ( 1.000000000000000000, 0.0000000000000000000, -0.0000000000000000000 ) ) ;
#148 = DIRECTION ( 'NONE',  ( 0.0000000000000000000, 0.0000000000000000000, 1.000000000000000000 ) ) ;
#149 = EDGE_CURVE ( 'NONE', #91, #93, #89, .T. ) ;
#150 = APPROVAL_ROLE ( '' ) ;
#151 = ORIENTED_EDGE ( 'NONE', *, *, #149, .F. ) ;
#152 = DIRECTION ( 'NONE',  ( 0.0000000000000000000, 0.0000000000000000000, 1.000000000000000000 ) ) ;
#153 = MANIFOLD_SOLID_BREP ( 'Boss-Extrude1', #167 ) ;
#154 = COORDINATED_UNIVERSAL_TIME_OFFSET ( 5, 0, .BEHIND. ) ;
#155 = CC_DESIGN_PERSON_AND_ORGANIZATION_ASSIGNMENT ( #96, #47, ( #74 ) ) ;
#156 = LOCAL_TIME ( 10, 41, 25.00000000000000000, #154 ) ;
#157 = VECTOR ( 'NONE', #160, 1000.000000000000000 ) ;
#158 = CC_DESIGN_PERSON_AND_ORGANIZATION_ASSIGNMENT ( #45, #57, ( #26 ) ) ;
#159 = PERSON ( 'UNSPECIFIED', 'UNSPECIFIED', 'UNSPECIFIED', ('UNSPECIFIED'), ('UNSPECIFIED'), ('UNSPECIFIED') ) ;
#160 = DIRECTION ( 'NONE',  ( -0.0000000000000000000, -0.0000000000000000000, -1.000000000000000000 ) ) ;
#161 = AXIS2_PLACEMENT_3D ( 'NONE', #87, #43, #100 ) ;
#162 = DIRECTION ( 'NONE',  ( 1.000000000000000000, 0.0000000000000000000, 0.0000000000000000000 ) ) ;
#163 = PLANE ( 'NONE',  #161 ) ;
#164 = CALENDAR_DATE ( 2019, 7, 1 ) ;
#165 = ORIENTED_EDGE ( 'NONE', *, *, #118, .T. ) ;
#166 = DIRECTION ( 'NONE',  ( 1.000000000000000000, 0.0000000000000000000, 0.0000000000000000000 ) ) ;
#167 = CLOSED_SHELL ( 'NONE', ( #77, #46, #13, #30 ) ) ;
#168 = APPROVAL ( #60, 'UNSPECIFIED' ) ;
#169 = LOCAL_TIME ( 10, 41, 25.00000000000000000, #48 ) ;
#170 = COORDINATED_UNIVERSAL_TIME_OFFSET ( 5, 0, .BEHIND. ) ;
#171 = PRODUCT_DEFINITION_SHAPE ( 'NONE', 'NONE',  #68 ) ;
#172 = CC_DESIGN_PERSON_AND_ORGANIZATION_ASSIGNMENT ( #174, #136, ( #26 ) ) ;
#173 = ORIENTED_EDGE ( 'NONE', *, *, #37, .T. ) ;
#174 = PERSON_AND_ORGANIZATION ( #159, #67 ) ;
#175 = APPROVAL_DATE_TIME ( #38, #168 ) ;
ENDSEC;
END-ISO-10303-21;
