ISO-10303-21;
HEADER;
FILE_DESCRIPTION (( 'STEP AP203' ),
    '1' );
FILE_NAME ('Web Model 45461_45461.step',
    '2019-01-28T19:09:38',
    ( '' ),
    ( '' ),
    'SwSTEP 2.0',
    'SolidWorks 2016',
    '' );
FILE_SCHEMA (( 'CONFIG_CONTROL_DESIGN' ));
ENDSEC;

DATA;
#1 = PERSON_AND_ORGANIZATION_ROLE ( 'creator' ) ;
#2 = DIRECTION ( 'NONE',  ( 1.000000000000000000, 0.0000000000000000000, 0.0000000000000000000 ) ) ;
#3 = PERSON_AND_ORGANIZATION_ROLE ( 'creator' ) ;
#4 = EDGE_LOOP ( 'NONE', ( #72, #97 ) ) ;
#5 = EDGE_CURVE ( 'NONE', #70, #19, #29, .T. ) ;
#6 = PERSON_AND_ORGANIZATION ( #161, #69 ) ;
#7 = PRODUCT_DEFINITION_FORMATION_WITH_SPECIFIED_SOURCE ( 'ANY', '', #106, .NOT_KNOWN. ) ;
#8 = DIRECTION ( 'NONE',  ( 0.0000000000000000000, 0.0000000000000000000, 1.000000000000000000 ) ) ;
#9 = DIRECTION ( 'NONE',  ( 0.0000000000000000000, 0.0000000000000000000, 1.000000000000000000 ) ) ;
#10 = DIRECTION ( 'NONE',  ( -0.0000000000000000000, -0.0000000000000000000, -1.000000000000000000 ) ) ;
#11 = CALENDAR_DATE ( 2019, 28, 1 ) ;
#12 = AXIS2_PLACEMENT_3D ( 'NONE', #98, #115, #32 ) ;
#13 = APPROVAL_DATE_TIME ( #50, #143 ) ;
#14 = APPROVAL_ROLE ( '' ) ;
#15 = COORDINATED_UNIVERSAL_TIME_OFFSET ( 5, 0, .BEHIND. ) ;
#16 = PERSON_AND_ORGANIZATION_ROLE ( 'design_supplier' ) ;
#17 = CALENDAR_DATE ( 2019, 28, 1 ) ;
#18 = CIRCLE ( 'NONE', #12, 10.00000000000000000 ) ;
#19 = VERTEX_POINT ( 'NONE', #43 ) ;
#20 = PERSON_AND_ORGANIZATION_ROLE ( 'design_owner' ) ;
#21 = DIRECTION ( 'NONE',  ( 1.000000000000000000, 0.0000000000000000000, 0.0000000000000000000 ) ) ;
#22 = COORDINATED_UNIVERSAL_TIME_OFFSET ( 5, 0, .BEHIND. ) ;
#23 = CARTESIAN_POINT ( 'NONE',  ( 10.00000000000000000, 1.224646799147353300E-015, -1.649999999999999900 ) ) ;
#24 = VECTOR ( 'NONE', #83, 1000.000000000000000 ) ;
#25 = DATE_AND_TIME ( #94, #118 ) ;
#26 = APPROVAL_PERSON_ORGANIZATION ( #44, #103, #140 ) ;
#27 = SECURITY_CLASSIFICATION_LEVEL ( 'unclassified' ) ;
#28 = PERSON_AND_ORGANIZATION ( #161, #69 ) ;
#29 = CIRCLE ( 'NONE', #175, 10.00000000000000000 ) ;
#30 = EDGE_LOOP ( 'NONE', ( #173, #130 ) ) ;
#31 = AXIS2_PLACEMENT_3D ( 'NONE', #86, #142, #100 ) ;
#32 = DIRECTION ( 'NONE',  ( 1.000000000000000000, 0.0000000000000000000, 0.0000000000000000000 ) ) ;
#33 = DIRECTION ( 'NONE',  ( 1.000000000000000000, 0.0000000000000000000, -0.0000000000000000000 ) ) ;
#34 = ADVANCED_BREP_SHAPE_REPRESENTATION ( 'Web Model 45461_45461', ( #68, #61 ), #39 ) ;
#35 = VERTEX_POINT ( 'NONE', #54 ) ;
#36 = EDGE_CURVE ( 'NONE', #35, #70, #165, .T. ) ;
#37 = AXIS2_PLACEMENT_3D ( 'NONE', #47, #9, #149 ) ;
#38 = CIRCLE ( 'NONE', #79, 10.00000000000000000 ) ;
#39 =( GEOMETRIC_REPRESENTATION_CONTEXT ( 3 ) GLOBAL_UNCERTAINTY_ASSIGNED_CONTEXT ( ( #174 ) ) GLOBAL_UNIT_ASSIGNED_CONTEXT ( ( #48, #145, #147 ) ) REPRESENTATION_CONTEXT ( 'NONE', 'WORKASPACE' ) );
#40 = CARTESIAN_POINT ( 'NONE',  ( 10.00000000000000000, 1.224646799147353300E-015, 1.649999999999999900 ) ) ;
#41 = DATE_TIME_ROLE ( 'classification_date' ) ;
#42 = ORIENTED_EDGE ( 'NONE', *, *, #116, .F. ) ;
#43 = CARTESIAN_POINT ( 'NONE',  ( -10.00000000000000000, 0.0000000000000000000, -1.649999999999999900 ) ) ;
#44 = PERSON_AND_ORGANIZATION ( #161, #69 ) ;
#45 = ORIENTED_EDGE ( 'NONE', *, *, #113, .F. ) ;
#46 = CARTESIAN_POINT ( 'NONE',  ( 0.0000000000000000000, 0.0000000000000000000, 1.649999999999999900 ) ) ;
#47 = CARTESIAN_POINT ( 'NONE',  ( 0.0000000000000000000, 0.0000000000000000000, 1.649999999999999900 ) ) ;
#48 =( LENGTH_UNIT ( ) NAMED_UNIT ( * ) SI_UNIT ( .MILLI., .METRE. ) );
#49 = ADVANCED_FACE ( 'NONE', ( #159 ), #81, .T. ) ;
#50 = DATE_AND_TIME ( #17, #53 ) ;
#51 = DATE_AND_TIME ( #11, #104 ) ;
#52 = ADVANCED_FACE ( 'NONE', ( #56 ), #101, .T. ) ;
#53 = LOCAL_TIME ( 14, 9, 38.00000000000000000, #22 ) ;
#54 = CARTESIAN_POINT ( 'NONE',  ( 10.00000000000000000, 1.224646799147353300E-015, 1.649999999999999900 ) ) ;
#55 = APPROVAL_ROLE ( '' ) ;
#56 = FACE_OUTER_BOUND ( 'NONE', #30, .T. ) ;
#57 = CARTESIAN_POINT ( 'NONE',  ( 0.0000000000000000000, 0.0000000000000000000, -1.649999999999999900 ) ) ;
#58 = CIRCLE ( 'NONE', #31, 10.00000000000000000 ) ;
#59 = SECURITY_CLASSIFICATION ( '', '', #27 ) ;
#60 = DATE_AND_TIME ( #148, #126 ) ;
#61 = AXIS2_PLACEMENT_3D ( 'NONE', #144, #157, #74 ) ;
#62 = DIRECTION ( 'NONE',  ( 0.0000000000000000000, 0.0000000000000000000, 1.000000000000000000 ) ) ;
#63 = COORDINATED_UNIVERSAL_TIME_OFFSET ( 5, 0, .BEHIND. ) ;
#64 = PLANE ( 'NONE',  #67 ) ;
#65 = DATE_AND_TIME ( #71, #85 ) ;
#66 = PERSON_AND_ORGANIZATION ( #161, #69 ) ;
#67 = AXIS2_PLACEMENT_3D ( 'NONE', #146, #8, #33 ) ;
#68 = MANIFOLD_SOLID_BREP ( 'Boss-Extrude1', #111 ) ;
#69 = ORGANIZATION ( 'UNSPECIFIED', 'UNSPECIFIED', '' ) ;
#70 = VERTEX_POINT ( 'NONE', #23 ) ;
#71 = CALENDAR_DATE ( 2019, 28, 1 ) ;
#72 = ORIENTED_EDGE ( 'NONE', *, *, #87, .F. ) ;
#73 = AXIS2_PLACEMENT_3D ( 'NONE', #76, #10, #158 ) ;
#74 = DIRECTION ( 'NONE',  ( 1.000000000000000000, 0.0000000000000000000, 0.0000000000000000000 ) ) ;
#75 = APPLICATION_CONTEXT ( 'configuration controlled 3d designs of mechanical parts and assemblies' ) ;
#76 = CARTESIAN_POINT ( 'NONE',  ( 0.0000000000000000000, 0.0000000000000000000, 1.649999999999999900 ) ) ;
#77 = PRODUCT_DEFINITION_SHAPE ( 'NONE', 'NONE',  #127 ) ;
#78 = APPROVAL_STATUS ( 'not_yet_approved' ) ;
#79 = AXIS2_PLACEMENT_3D ( 'NONE', #46, #62, #21 ) ;
#80 = ORIENTED_EDGE ( 'NONE', *, *, #5, .T. ) ;
#81 = CYLINDRICAL_SURFACE ( 'NONE', #107, 10.00000000000000000 ) ;
#82 = CC_DESIGN_PERSON_AND_ORGANIZATION_ASSIGNMENT ( #138, #20, ( #106 ) ) ;
#83 = DIRECTION ( 'NONE',  ( -0.0000000000000000000, -0.0000000000000000000, -1.000000000000000000 ) ) ;
#84 = APPROVAL ( #150, 'UNSPECIFIED' ) ;
#85 = LOCAL_TIME ( 14, 9, 38.00000000000000000, #15 ) ;
#86 = CARTESIAN_POINT ( 'NONE',  ( 0.0000000000000000000, 0.0000000000000000000, -1.649999999999999900 ) ) ;
#87 = EDGE_CURVE ( 'NONE', #19, #70, #58, .T. ) ;
#88 = APPROVAL_PERSON_ORGANIZATION ( #122, #84, #14 ) ;
#89 = ORIENTED_EDGE ( 'NONE', *, *, #160, .F. ) ;
#90 = APPROVAL_PERSON_ORGANIZATION ( #108, #143, #55 ) ;
#91 = CC_DESIGN_DATE_AND_TIME_ASSIGNMENT ( #60, #152, ( #127 ) ) ;
#92 = FACE_OUTER_BOUND ( 'NONE', #139, .T. ) ;
#93 = ORIENTED_EDGE ( 'NONE', *, *, #160, .T. ) ;
#94 = CALENDAR_DATE ( 2019, 28, 1 ) ;
#95 = CC_DESIGN_APPROVAL ( #84, ( #127 ) ) ;
#96 = COORDINATED_UNIVERSAL_TIME_OFFSET ( 5, 0, .BEHIND. ) ;
#97 = ORIENTED_EDGE ( 'NONE', *, *, #5, .F. ) ;
#98 = CARTESIAN_POINT ( 'NONE',  ( 0.0000000000000000000, 0.0000000000000000000, 1.649999999999999900 ) ) ;
#99 = APPLICATION_PROTOCOL_DEFINITION ( 'international standard', 'config_control_design', 1994, #75 ) ;
#100 = DIRECTION ( 'NONE',  ( 1.000000000000000000, 0.0000000000000000000, 0.0000000000000000000 ) ) ;
#101 = PLANE ( 'NONE',  #37 ) ;
#102 = CC_DESIGN_DATE_AND_TIME_ASSIGNMENT ( #25, #41, ( #59 ) ) ;
#103 = APPROVAL ( #78, 'UNSPECIFIED' ) ;
#104 = LOCAL_TIME ( 14, 9, 38.00000000000000000, #63 ) ;
#105 = VERTEX_POINT ( 'NONE', #169 ) ;
#106 = PRODUCT ( 'Web Model 45461_45461', 'Web Model 45461_45461', '', ( #112 ) ) ;
#107 = AXIS2_PLACEMENT_3D ( 'NONE', #154, #168, #119 ) ;
#108 = PERSON_AND_ORGANIZATION ( #161, #69 ) ;
#109 = CC_DESIGN_PERSON_AND_ORGANIZATION_ASSIGNMENT ( #170, #125, ( #59 ) ) ;
#110 = ORIENTED_EDGE ( 'NONE', *, *, #36, .T. ) ;
#111 = CLOSED_SHELL ( 'NONE', ( #123, #49, #52, #172 ) ) ;
#112 = MECHANICAL_CONTEXT ( 'NONE', #75, 'mechanical' ) ;
#113 = EDGE_CURVE ( 'NONE', #35, #105, #18, .T. ) ;
#114 = APPLICATION_CONTEXT ( 'configuration controlled 3d designs of mechanical parts and assemblies' ) ;
#115 = DIRECTION ( 'NONE',  ( 0.0000000000000000000, 0.0000000000000000000, 1.000000000000000000 ) ) ;
#116 = EDGE_CURVE ( 'NONE', #105, #35, #38, .T. ) ;
#117 = DESIGN_CONTEXT ( 'detailed design', #114, 'design' ) ;
#118 = LOCAL_TIME ( 14, 9, 38.00000000000000000, #136 ) ;
#119 = DIRECTION ( 'NONE',  ( -1.000000000000000000, 0.0000000000000000000, 0.0000000000000000000 ) ) ;
#120 = CC_DESIGN_PERSON_AND_ORGANIZATION_ASSIGNMENT ( #6, #1, ( #127 ) ) ;
#121 = EDGE_LOOP ( 'NONE', ( #135, #42, #93, #151 ) ) ;
#122 = PERSON_AND_ORGANIZATION ( #161, #69 ) ;
#123 = ADVANCED_FACE ( 'NONE', ( #92 ), #134, .T. ) ;
#124 = CC_DESIGN_APPROVAL ( #143, ( #59 ) ) ;
#125 = PERSON_AND_ORGANIZATION_ROLE ( 'classification_officer' ) ;
#126 = LOCAL_TIME ( 14, 9, 38.00000000000000000, #96 ) ;
#127 = PRODUCT_DEFINITION ( 'UNKNOWN', '', #7, #117 ) ;
#128 = CC_DESIGN_PERSON_AND_ORGANIZATION_ASSIGNMENT ( #66, #3, ( #7 ) ) ;
#129 = SHAPE_DEFINITION_REPRESENTATION ( #77, #34 ) ;
#130 = ORIENTED_EDGE ( 'NONE', *, *, #113, .T. ) ;
#131 = CC_DESIGN_APPROVAL ( #103, ( #7 ) ) ;
#132 = APPLICATION_PROTOCOL_DEFINITION ( 'international standard', 'config_control_design', 1994, #114 ) ;
#133 = CC_DESIGN_SECURITY_CLASSIFICATION ( #59, ( #7 ) ) ;
#134 = CYLINDRICAL_SURFACE ( 'NONE', #73, 10.00000000000000000 ) ;
#135 = ORIENTED_EDGE ( 'NONE', *, *, #36, .F. ) ;
#136 = COORDINATED_UNIVERSAL_TIME_OFFSET ( 5, 0, .BEHIND. ) ;
#137 = CC_DESIGN_PERSON_AND_ORGANIZATION_ASSIGNMENT ( #28, #16, ( #7 ) ) ;
#138 = PERSON_AND_ORGANIZATION ( #161, #69 ) ;
#139 = EDGE_LOOP ( 'NONE', ( #45, #110, #80, #89 ) ) ;
#140 = APPROVAL_ROLE ( '' ) ;
#141 = DIRECTION ( 'NONE',  ( -0.0000000000000000000, -0.0000000000000000000, -1.000000000000000000 ) ) ;
#142 = DIRECTION ( 'NONE',  ( 0.0000000000000000000, 0.0000000000000000000, 1.000000000000000000 ) ) ;
#143 = APPROVAL ( #164, 'UNSPECIFIED' ) ;
#144 = CARTESIAN_POINT ( 'NONE',  ( 0.0000000000000000000, 0.0000000000000000000, 0.0000000000000000000 ) ) ;
#145 =( NAMED_UNIT ( * ) PLANE_ANGLE_UNIT ( ) SI_UNIT ( $, .RADIAN. ) );
#146 = CARTESIAN_POINT ( 'NONE',  ( 0.0000000000000000000, 0.0000000000000000000, -1.649999999999999900 ) ) ;
#147 =( NAMED_UNIT ( * ) SI_UNIT ( $, .STERADIAN. ) SOLID_ANGLE_UNIT ( ) );
#148 = CALENDAR_DATE ( 2019, 28, 1 ) ;
#149 = DIRECTION ( 'NONE',  ( 1.000000000000000000, 0.0000000000000000000, -0.0000000000000000000 ) ) ;
#150 = APPROVAL_STATUS ( 'not_yet_approved' ) ;
#151 = ORIENTED_EDGE ( 'NONE', *, *, #87, .T. ) ;
#152 = DATE_TIME_ROLE ( 'creation_date' ) ;
#153 = DIRECTION ( 'NONE',  ( 0.0000000000000000000, 0.0000000000000000000, 1.000000000000000000 ) ) ;
#154 = CARTESIAN_POINT ( 'NONE',  ( 0.0000000000000000000, 0.0000000000000000000, 1.649999999999999900 ) ) ;
#155 = FACE_OUTER_BOUND ( 'NONE', #4, .T. ) ;
#156 = APPROVAL_DATE_TIME ( #51, #103 ) ;
#157 = DIRECTION ( 'NONE',  ( 0.0000000000000000000, 0.0000000000000000000, 1.000000000000000000 ) ) ;
#158 = DIRECTION ( 'NONE',  ( -1.000000000000000000, 0.0000000000000000000, 0.0000000000000000000 ) ) ;
#159 = FACE_OUTER_BOUND ( 'NONE', #121, .T. ) ;
#160 = EDGE_CURVE ( 'NONE', #105, #19, #163, .T. ) ;
#161 = PERSON ( 'UNSPECIFIED', 'UNSPECIFIED', 'UNSPECIFIED', ('UNSPECIFIED'), ('UNSPECIFIED'), ('UNSPECIFIED') ) ;
#162 = VECTOR ( 'NONE', #141, 1000.000000000000000 ) ;
#163 = LINE ( 'NONE', #171, #24 ) ;
#164 = APPROVAL_STATUS ( 'not_yet_approved' ) ;
#165 = LINE ( 'NONE', #40, #162 ) ;
#166 = PRODUCT_RELATED_PRODUCT_CATEGORY ( 'detail', '', ( #106 ) ) ;
#167 = APPROVAL_DATE_TIME ( #65, #84 ) ;
#168 = DIRECTION ( 'NONE',  ( -0.0000000000000000000, -0.0000000000000000000, -1.000000000000000000 ) ) ;
#169 = CARTESIAN_POINT ( 'NONE',  ( -10.00000000000000000, 0.0000000000000000000, 1.649999999999999900 ) ) ;
#170 = PERSON_AND_ORGANIZATION ( #161, #69 ) ;
#171 = CARTESIAN_POINT ( 'NONE',  ( -10.00000000000000000, 0.0000000000000000000, 1.649999999999999900 ) ) ;
#172 = ADVANCED_FACE ( 'NONE', ( #155 ), #64, .F. ) ;
#173 = ORIENTED_EDGE ( 'NONE', *, *, #116, .T. ) ;
#174 = UNCERTAINTY_MEASURE_WITH_UNIT (LENGTH_MEASURE( 1.000000000000000100E-005 ), #48, 'distance_accuracy_value', 'NONE');
#175 = AXIS2_PLACEMENT_3D ( 'NONE', #57, #153, #2 ) ;
ENDSEC;
END-ISO-10303-21;
