  0
SECTION
  2
HEADER
  9
$ACADVER
  1
AC1015
  9
$ACADMAINTVER
 70
           6
  9
$DWGCODEPAGE
  3
ANSI_1252
  9
$INSBASE
 10
0.0
 20
0.0
 30
0.0
  9
$EXTMIN
 10
1.178225
 20
-0.18295
 30
0.0
  9
$EXTMAX
 10
11.174375
 20
7.276565716614
 30
0.23292
  9
$LIMMIN
 10
0.0
 20
0.0
  9
$LIMMAX
 10
10.15
 20
7.6
  9
$ORTHOMODE
 70
           1
  9
$REGENMODE
 70
           1
  9
$FILLMODE
 70
           1
  9
$QTEXTMODE
 70
           0
  9
$MIRRTEXT
 70
           0
  9
$LTSCALE
 40
0.25
  9
$ATTMODE
 70
           1
  9
$TEXTSIZE
 40
0.1
  9
$TRACEWID
 40
0.05
  9
$TEXTSTYLE
  7
STANDARD
  9
$CLAYER
  8
DIM1
  9
$CELTYPE
  6
ByLayer
  9
$CECOLOR
 62
         256
  9
$CELTSCALE
 40
1.0
  9
$DISPSILH
 70
           0
  9
$DIMSCALE
 40
1.0
  9
$DIMASZ
 40
0.18
  9
$DIMEXO
 40
0.0625
  9
$DIMDLI
 40
0.38
  9
$DIMRND
 40
0.0
  9
$DIMDLE
 40
0.0
  9
$DIMEXE
 40
0.06
  9
$DIMTP
 40
0.0
  9
$DIMTM
 40
0.0
  9
$DIMTXT
 40
0.08
  9
$DIMCEN
 40
0.09
  9
$DIMTSZ
 40
0.0
  9
$DIMTOL
 70
           0
  9
$DIMLIM
 70
           0
  9
$DIMTIH
 70
           1
  9
$DIMTOH
 70
           1
  9
$DIMSE1
 70
           0
  9
$DIMSE2
 70
           0
  9
$DIMTAD
 70
           0
  9
$DIMZIN
 70
           0
  9
$DIMBLK
  1

  9
$DIMASO
 70
           0
  9
$DIMSHO
 70
           0
  9
$DIMPOST
  1

  9
$DIMAPOST
  1

  9
$DIMALT
 70
           0
  9
$DIMALTD
 70
           2
  9
$DIMALTF
 40
25.4
  9
$DIMLFAC
 40
1.0
  9
$DIMTOFL
 70
           0
  9
$DIMTVP
 40
0.0
  9
$DIMTIX
 70
           1
  9
$DIMSOXD
 70
           0
  9
$DIMSAH
 70
           0
  9
$DIMBLK1
  1

  9
$DIMBLK2
  1

  9
$DIMSTYLE
  2
STANDARD
  9
$DIMCLRD
 70
           0
  9
$DIMCLRE
 70
           0
  9
$DIMCLRT
 70
           0
  9
$DIMTFAC
 40
1.0
  9
$DIMGAP
 40
0.09
  9
$DIMJUST
 70
           0
  9
$DIMSD1
 70
           0
  9
$DIMSD2
 70
           0
  9
$DIMTOLJ
 70
           1
  9
$DIMTZIN
 70
           0
  9
$DIMALTZ
 70
           0
  9
$DIMALTTZ
 70
           0
  9
$DIMUPT
 70
           1
  9
$DIMDEC
 70
           4
  9
$DIMTDEC
 70
           4
  9
$DIMALTU
 70
           2
  9
$DIMALTTD
 70
           2
  9
$DIMTXSTY
  7
STANDARD
  9
$DIMAUNIT
 70
           0
  9
$DIMADEC
 70
           0
  9
$DIMALTRND
 40
0.0
  9
$DIMAZIN
 70
           0
  9
$DIMDSEP
 70
           0
  9
$DIMATFIT
 70
           0
  9
$DIMFRAC
 70
           0
  9
$DIMLDRBLK
  1

  9
$DIMLUNIT
 70
           2
  9
$DIMLWD
 70
           0
  9
$DIMLWE
 70
           0
  9
$DIMTMOVE
 70
           0
  9
$LUNITS
 70
           2
  9
$LUPREC
 70
           3
  9
$SKETCHINC
 40
0.01
  9
$FILLETRAD
 40
0.03
  9
$AUNITS
 70
           0
  9
$AUPREC
 70
           0
  9
$MENU
  1
acad
  9
$ELEVATION
 40
0.0
  9
$PELEVATION
 40
0.0
  9
$THICKNESS
 40
0.18
  9
$LIMCHECK
 70
           1
  9
$CHAMFERA
 40
0.03
  9
$CHAMFERB
 40
0.015
  9
$CHAMFERC
 40
0.0
  9
$CHAMFERD
 40
0.0
  9
$SKPOLY
 70
           0
  9
$TDCREATE
 40
2449819.616326262
  9
$TDUCREATE
 40
0.000000000
  9
$TDUPDATE
 40
2454041.656492384
  9
$TDUUPDATE
 40
2454041.864825729
  9
$TDINDWG
 40
0.1512905556
  9
$TDUSRTIMER
 40
0.1512789815
  9
$USRTIMER
 70
           1
  9
$ANGBASE
 50
0.0
  9
$ANGDIR
 70
           0
  9
$PDMODE
 70
           0
  9
$PDSIZE
 40
0.0
  9
$PLINEWID
 40
0.0
  9
$SPLFRAME
 70
           0
  9
$SPLINETYPE
 70
           6
  9
$SPLINESEGS
 70
           8
  9
$HANDSEED
  5
659
  9
$SURFTAB1
 70
           6
  9
$SURFTAB2
 70
           6
  9
$SURFTYPE
 70
           6
  9
$SURFU
 70
           6
  9
$SURFV
 70
           6
  9
$UCSBASE
  2

  9
$UCSNAME
  2

  9
$UCSORG
 10
4.0496999999999996
 20
4.3385249999999989
 30
0.0
  9
$UCSXDIR
 10
1.0
 20
0.0
 30
0.0
  9
$UCSYDIR
 10
0.0
 20
1.0
 30
0.0
  9
$UCSORTHOREF
  2

  9
$UCSORTHOVIEW
 70
           0
  9
$UCSORGTOP
 10
0.0
 20
0.0
 30
0.0
  9
$UCSORGBOTTOM
 10
0.0
 20
0.0
 30
0.0
  9
$UCSORGLEFT
 10
0.0
 20
0.0
 30
0.0
  9
$UCSORGRIGHT
 10
0.0
 20
0.0
 30
0.0
  9
$UCSORGFRONT
 10
0.0
 20
0.0
 30
0.0
  9
$UCSORGBACK
 10
0.0
 20
0.0
 30
0.0
  9
$PUCSBASE
  2

  9
$PUCSNAME
  2

  9
$PUCSORG
 10
0.0
 20
0.0
 30
0.0
  9
$PUCSXDIR
 10
1.0
 20
0.0
 30
0.0
  9
$PUCSYDIR
 10
0.0
 20
1.0
 30
0.0
  9
$PUCSORTHOREF
  2

  9
$PUCSORTHOVIEW
 70
           0
  9
$PUCSORGTOP
 10
0.0
 20
0.0
 30
0.0
  9
$PUCSORGBOTTOM
 10
0.0
 20
0.0
 30
0.0
  9
$PUCSORGLEFT
 10
0.0
 20
0.0
 30
0.0
  9
$PUCSORGRIGHT
 10
0.0
 20
0.0
 30
0.0
  9
$PUCSORGFRONT
 10
0.0
 20
0.0
 30
0.0
  9
$PUCSORGBACK
 10
0.0
 20
0.0
 30
0.0
  9
$USERI1
 70
           0
  9
$USERI2
 70
           0
  9
$USERI3
 70
           0
  9
$USERI4
 70
           0
  9
$USERI5
 70
           0
  9
$USERR1
 40
0.0
  9
$USERR2
 40
0.0
  9
$USERR3
 40
0.0
  9
$USERR4
 40
0.0
  9
$USERR5
 40
0.0
  9
$WORLDVIEW
 70
           1
  9
$SHADEDGE
 70
           3
  9
$SHADEDIF
 70
          70
  9
$TILEMODE
 70
           1
  9
$MAXACTVP
 70
          16
  9
$PINSBASE
 10
0.0
 20
0.0
 30
0.0
  9
$PLIMCHECK
 70
           0
  9
$PEXTMIN
 10
1.000000000000E+20
 20
1.000000000000E+20
 30
1.000000000000E+20
  9
$PEXTMAX
 10
-1.000000000000E+20
 20
-1.000000000000E+20
 30
-1.000000000000E+20
  9
$PLIMMIN
 10
0.0
 20
0.0
  9
$PLIMMAX
 10
12.0
 20
9.0
  9
$UNITMODE
 70
           0
  9
$VISRETAIN
 70
           0
  9
$PLINEGEN
 70
           0
  9
$PSLTSCALE
 70
           0
  9
$TREEDEPTH
 70
        3020
  9
$CMLSTYLE
  2
Standard
  9
$CMLJUST
 70
           0
  9
$CMLSCALE
 40
1.0
  9
$PROXYGRAPHICS
 70
           1
  9
$MEASUREMENT
 70
           0
  9
$CELWEIGHT
370
           0
  9
$ENDCAPS
280
           0
  9
$JOINSTYLE
280
           0
  9
$LWDISPLAY
290
           0
  9
$INSUNITS
 70
           0
  9
$HYPERLINKBASE
  1

  9
$STYLESHEET
  1

  9
$XEDIT
290
           0
  9
$CEPSNTYPE
380
           0
  9
$PSTYLEMODE
290
           1
  9
$FINGERPRINTGUID
  2

  9
$VERSIONGUID
  2

  9
$EXTNAMES
290
           1
  9
$PSVPSCALE
 40
0.0
  0
ENDSEC
  0
SECTION
  2
CLASSES
  0
CLASS
  1
LWPOLYLINE
  2
AcDbPolyline
  3
"AutoCAD"
 90
        0
280
           0
281
           1
  0
CLASS
  1
IMAGE
  2
AcDbRasterImage
  3
ISM
 90
      127
280
           0
281
           1
  0
CLASS
  1
OLE2FRAME
  2
AcDbOle2Frame
  3
AutoCAD 2000
 90
        0
280
           0
281
           1
  0
CLASS
  1
HATCH
  2
AcDbHatch
  3
AutoCAD 2000
 90
        0
280
           0
281
           1
  0
CLASS
  1
DICTIONARYVAR
  2
AcDbDictionaryVar
  3
AutoCAD 2000
 90
        0
280
           0
281
           0
  0
CLASS
  1
RASTERVARIABLES
  2
AcDbRasterVariables
  3
ISM
 90
        0
280
           0
281
           0
  0
CLASS
  1
IMAGEDEF
  2
AcDbRasterImageDef
  3
ISM
 90
        0
280
           0
281
           0
  0
CLASS
  1
IMAGEDEF_REACTOR
  2
AcDbRasterImageDefReactor
  3
ISM
 90
        1
280
           0
281
           0
  0
CLASS
  1
IDBUFFER
  2
AcDbIdBuffer
  3
AutoCAD 2000
 90
        0
280
           0
281
           0
  0
CLASS
  1
SPATIAL_FILTER
  2
AcDbSpatialFilter
  3
AutoCAD 2000
 90
        0
280
           0
281
           0
  0
CLASS
  1
XRECORD
  2
AcDbXrecord
  3
AutoCAD 2000
 90
        0
280
           0
281
           0
  0
CLASS
  1
SORTENTSTABLE
  2
AcDbSortentsTable
  3
AutoCAD 2000
 90
        0
280
           0
281
           0
  0
CLASS
  1
LAYER_INDEX
  2
AcDbLayerIndex
  3
AutoCAD 2000
 90
        0
280
           0
281
           0
  0
CLASS
  1
SPATIAL_INDEX
  2
AcDbSpatialIndex
  3
AutoCAD 2000
 90
        0
280
           0
281
           0
  0
CLASS
  1
OBJECT_PTR
  2
CAseDLPNTableRecord
  3
"ASE-LPNTableRecord"
 90
        1
280
           0
281
           0
  0
CLASS
  1
LAYOUT
  2
AcDbLayout
  3
AutoCAD 2000
 90
        0
280
           0
281
           0
  0
CLASS
  1
PLOTSETTINGS
  2
AcDbPlotSettings
  3
AutoCAD 2000
 90
        0
280
           0
281
           0
  0
CLASS
  1
ACDBDICTIONARYWDFLT
  2
AcDbDictionaryWithDefault
  3
AutoCAD 2000
 90
        0
280
           0
281
           0
  0
CLASS
  1
ACDBPLACEHOLDER
  2
AcDbPlaceHolder
  3
AutoCAD 2000
 90
        0
280
           0
281
           0
  0
CLASS
  1
VBA_PROJECT
  2
AcDbVbaProject
  3
acadvba
 90
        0
280
           0
281
           0
  0
CLASS
  1
WIPEOUT
  2
AcDbWipeout
  3
WipeOut|AutoCAD Express Tool|expresstools@autodesk.com
 90
      127
280
           0
281
           1
  0
CLASS
  1
WIPEOUTVARIABLES
  2
AcDbWipeoutVariables
  3
WipeOut|AutoCAD Express Tool|expresstools@autodesk.com
 90
        0
280
           0
281
           0
  0
CLASS
  1
RTEXT
  2
RText
  3
RText|AutoCAD Express Tool|expresstools@autodesk.com
 90
        0
280
           0
281
           1
  0
CLASS
  1
ARCALIGNEDTEXT
  2
AcDbArcAlignedText
  3
ATEXT|AutoCAD Express Tool|expresstools@autodesk.com
 90
        0
280
           0
281
           1
  0
CLASS
  1
DIMASSOC
  2
AcDbDimAssoc
  3
AcDbDimAssoc|Product Desc:     AcDim ARX App For Dimension|Company:          Autodesk, Inc.|WEB Address:      www.autodesk.com
 90
        1
280
           0
281
           0
  0
ENDSEC
  0
SECTION
  2
TABLES
  0
TABLE
  2
VPORT
  5
8
100
AcDbSymbolTable
 70
           1
  0
VPORT
  5
4D2
100
AcDbSymbolTableRecord
100
AcDbViewportTableRecord
  2
*ACTIVE
 70
          64
 10
0.0
 20
0.0
 11
1.0
 21
1.0
 12
6.1763
 22
3.546807858307
 13
0.0
 23
0.0
 14
0.005
 24
0.005
 15
0.25
 25
0.25
 16
0.0
 26
0.0
 36
1.0
 17
0.0
 27
0.0
 37
0.0
 40
7.608706030946
 41
2.146005509642
 42
50.0
 43
0.0
 44
0.0
 50
0.0
 51
0.0
 71
           0
 72
         100
 73
           0
 74
           0
 75
           0
 76
           0
 77
           0
 78
           0
281
           0
 65
           0
110
0.0
120
0.0
130
0.0
111
1.0
121
0.0
131
0.0
112
0.0
122
1.0
132
0.0
345
0
346
0
 79
           0
146
0.0
  0
ENDTAB
  0
TABLE
  2
LTYPE
  5
5
100
AcDbSymbolTable
 70
           6
  0
LTYPE
  5
12
100
AcDbSymbolTableRecord
100
AcDbLinetypeTableRecord
  2
ByBlock
 70
          64
  3

 72
          65
 73
           0
 40
0.0
  0
LTYPE
  5
13
100
AcDbSymbolTableRecord
100
AcDbLinetypeTableRecord
  2
ByLayer
 70
          64
  3

 72
          65
 73
           0
 40
0.0
  0
LTYPE
  5
14
100
AcDbSymbolTableRecord
100
AcDbLinetypeTableRecord
  2
CONTINUOUS
 70
          64
  3
Solid line
 72
          65
 73
           0
 40
0.0
  0
LTYPE
  5
1F
100
AcDbSymbolTableRecord
100
AcDbLinetypeTableRecord
  2
DASHED
 70
          64
  3
__ __ __ __ __ __ __ __ __ __ __ __ __ __ __
 72
          65
 73
           2
 40
0.75
 49
0.5
 74
           0
 49
-0.25
 74
           0
  0
LTYPE
  5
20
100
AcDbSymbolTableRecord
100
AcDbLinetypeTableRecord
  2
HIDDEN
 70
          64
  3
_ _ _ _ _ _ _ _ _ _ _ _ _ _ _ _ _ _ _ _ _ _ _
 72
          65
 73
           2
 40
0.375
 49
0.25
 74
           0
 49
-0.125
 74
           0
  0
LTYPE
  5
21
100
AcDbSymbolTableRecord
100
AcDbLinetypeTableRecord
  2
CENTER
 70
          64
  3
____ _ ____ _ ____ _ ____ _ ____ _ ____ _ ____
 72
          65
 73
           4
 40
2.0
 49
1.25
 74
           0
 49
-0.25
 74
           0
 49
0.25
 74
           0
 49
-0.25
 74
           0
  0
ENDTAB
  0
TABLE
  2
LAYER
  5
2
100
AcDbSymbolTable
 70
          12
  0
LAYER
  5
F
100
AcDbSymbolTableRecord
100
AcDbLayerTableRecord
  2
0
 70
          64
 62
           2
  6
CONTINUOUS
290
           1
370
          -3
390
4D3
  0
LAYER
  5
24
100
AcDbSymbolTableRecord
100
AcDbLayerTableRecord
  2
BORDER
 70
          64
 62
          11
  6
CONTINUOUS
290
           1
370
          -3
390
4D3
  0
LAYER
  5
25
100
AcDbSymbolTableRecord
100
AcDbLayerTableRecord
  2
SHEET1
 70
          64
 62
           2
  6
CONTINUOUS
290
           1
370
          -3
390
4D3
  0
LAYER
  5
26
100
AcDbSymbolTableRecord
100
AcDbLayerTableRecord
  2
DIM1
 70
          64
 62
           6
  6
CONTINUOUS
290
           1
370
          -3
390
4D3
  0
LAYER
  5
27
100
AcDbSymbolTableRecord
100
AcDbLayerTableRecord
  2
SHEET2
 70
          64
 62
           3
  6
CONTINUOUS
290
           1
370
          -3
390
4D3
  0
LAYER
  5
28
100
AcDbSymbolTableRecord
100
AcDbLayerTableRecord
  2
SHEET3
 70
          64
 62
           7
  6
CONTINUOUS
290
           1
370
          -3
390
4D3
  0
LAYER
  5
29
100
AcDbSymbolTableRecord
100
AcDbLayerTableRecord
  2
DIM2
 70
          64
 62
           6
  6
CONTINUOUS
290
           1
370
          -3
390
4D3
  0
LAYER
  5
2A
100
AcDbSymbolTableRecord
100
AcDbLayerTableRecord
  2
DIM3
 70
          64
 62
           6
  6
CONTINUOUS
290
           1
370
          -3
390
4D3
  0
LAYER
  5
20F
100
AcDbSymbolTableRecord
100
AcDbLayerTableRecord
  2
DIM
 70
          64
 62
           6
  6
CONTINUOUS
290
           1
370
          -3
390
4D3
  0
LAYER
  5
210
100
AcDbSymbolTableRecord
100
AcDbLayerTableRecord
  2
HIDDEN
 70
          64
 62
           7
  6
HIDDEN
290
           1
370
          -3
390
4D3
  0
LAYER
  5
4AE
100
AcDbSymbolTableRecord
100
AcDbLayerTableRecord
  2
D1
 70
          64
 62
           6
  6
CONTINUOUS
290
           1
370
          -3
390
4D3
  0
LAYER
  5
4AF
100
AcDbSymbolTableRecord
100
AcDbLayerTableRecord
  2
S3
 70
          64
 62
           7
  6
CONTINUOUS
290
           1
370
          -3
390
4D3
  0
ENDTAB
  0
TABLE
  2
STYLE
  5
3
100
AcDbSymbolTable
 70
           1
  0
STYLE
  5
10
100
AcDbSymbolTableRecord
100
AcDbTextStyleTableRecord
  2
STANDARD
 70
          64
 40
0.0
 41
1.0
 50
0.0
 71
           0
 42
0.1
  3
TXT
  4

  0
ENDTAB
  0
TABLE
  2
VIEW
  5
6
100
AcDbSymbolTable
 70
           0
  0
ENDTAB
  0
TABLE
  2
UCS
  5
7
100
AcDbSymbolTable
 70
           0
  0
ENDTAB
  0
TABLE
  2
APPID
  5
9
100
AcDbSymbolTable
 70
           2
  0
APPID
  5
11
100
AcDbSymbolTableRecord
100
AcDbRegAppTableRecord
  2
ACAD
 70
          64
  0
APPID
  5
4BA
100
AcDbSymbolTableRecord
100
AcDbRegAppTableRecord
  2
CONTENTBLOCKDESCRIPTION
 70
          64
  0
ENDTAB
  0
TABLE
  2
DIMSTYLE
  5
A
100
AcDbSymbolTable
 70
           1
100
AcDbDimStyleTable
 71
           0
  0
DIMSTYLE
105
20D
100
AcDbSymbolTableRecord
100
AcDbDimStyleTableRecord
  2
STANDARD
 70
          64
  3

  4

 40
1.0
 41
0.18
 42
0.0625
 43
0.38
 44
0.18
 45
0.0
 46
0.0
 47
0.0
 48
0.0
 71
           0
 72
           0
 73
           1
 74
           1
 75
           0
 76
           0
 77
           0
 78
           0
 79
           0
140
0.18
141
0.09
142
0.0
143
25.4
144
1.0
145
0.0
146
1.0
147
0.09
148
0.0
170
           0
171
           2
172
           0
173
           0
174
           0
175
           0
176
           0
177
           0
178
           0
179
           0
271
           4
272
           4
273
           2
274
           2
275
           0
276
           0
277
           2
278
           0
279
           0
280
           0
281
           0
282
           0
283
           1
284
           0
285
           0
286
           0
288
           0
289
           3
340
10
341
0
342
0
343
0
344
0
371
          -2
372
          -2
  0
ENDTAB
  0
TABLE
  2
BLOCK_RECORD
  5
1
100
AcDbSymbolTable
 70
           7
  0
BLOCK_RECORD
  5
18
100
AcDbSymbolTableRecord
100
AcDbBlockTableRecord
  2
*MODEL_SPACE
340
4D6
  0
BLOCK_RECORD
  5
15
100
AcDbSymbolTableRecord
100
AcDbBlockTableRecord
  2
*PAPER_SPACE
340
4D7
  0
BLOCK_RECORD
  5
1C
100
AcDbSymbolTableRecord
100
AcDbBlockTableRecord
  2
NAME
340
0
  0
BLOCK_RECORD
  5
1D
100
AcDbSymbolTableRecord
100
AcDbBlockTableRecord
  2
REVA
340
0
  0
BLOCK_RECORD
  5
1E
100
AcDbSymbolTableRecord
100
AcDbBlockTableRecord
  2
TR25F
340
0
  0
BLOCK_RECORD
  5
211
100
AcDbSymbolTableRecord
100
AcDbBlockTableRecord
  2
EB
340
0
  0
BLOCK_RECORD
  5
4B0
100
AcDbSymbolTableRecord
100
AcDbBlockTableRecord
  2
A$C62AC45B8
340
0
  0
BLOCK_RECORD
  5
4BB
100
AcDbSymbolTableRecord
100
AcDbBlockTableRecord
  2
COPYRIGHT00
340
0
  0
BLOCK_RECORD
  5
4C2
100
AcDbSymbolTableRecord
100
AcDbBlockTableRecord
  2
ESD-INFO
340
0
  0
ENDTAB
  0
ENDSEC
  0
SECTION
  2
BLOCKS
  0
BLOCK
  5
2D
100
AcDbEntity
  8
0
390
0
100
AcDbBlockBegin
  2
*MODEL_SPACE
 70
           0
 10
0.0
 20
0.0
 30
0.0
  3
*MODEL_SPACE
  1

  0
ENDBLK
  5
2E
100
AcDbEntity
  8
0
390
0
100
AcDbBlockEnd
  0
BLOCK
  5
2B
100
AcDbEntity
 67
           1
  8
0
390
0
100
AcDbBlockBegin
  2
*PAPER_SPACE
 70
           0
 10
0.0
 20
0.0
 30
0.0
  3
*PAPER_SPACE
  1

  0
ENDBLK
  5
2C
100
AcDbEntity
 67
           1
  8
0
390
0
100
AcDbBlockEnd
  0
BLOCK
  5
2F
100
AcDbEntity
  8
0
390
4D3
100
AcDbBlockBegin
  2
NAME
 70
          64
 10
0.0
 20
0.0
 30
0.0
  3
NAME
  1

  0
TEXT
  5
30
100
AcDbEntity
  8
DIM1
390
4D3
100
AcDbText
 10
-0.14
 20
0.005
 30
0.0
 40
0.1
  1
TR4
100
AcDbText
  0
LINE
  5
31
100
AcDbEntity
  8
DIM1
390
4D3
100
AcDbLine
 39
0.18
 10
-0.235
 20
-0.02
 30
0.0
 11
0.24
 21
-0.02
 31
0.0
  0
LINE
  5
32
100
AcDbEntity
  8
DIM1
390
4D3
100
AcDbLine
 39
0.18
 10
0.355
 20
-0.05
 30
0.0
 11
-0.345
 21
-0.05
 31
0.0
  0
ENDBLK
  5
33
100
AcDbEntity
  8
0
390
4D3
100
AcDbBlockEnd
  0
BLOCK
  5
34
100
AcDbEntity
  8
0
390
4D3
100
AcDbBlockBegin
  2
REVA
 70
          64
 10
0.0
 20
0.0
 30
0.0
  3
REVA
  1

  0
TEXT
  5
35
100
AcDbEntity
  8
DIM1
390
4D3
100
AcDbText
 10
-0.012082906982
 20
-0.005070321687
 30
0.0
 40
0.05
  1
A
 72
           1
 11
0.004667093018
 21
-0.005070321687
 31
0.0
100
AcDbText
  0
TEXT
  5
36
100
AcDbEntity
  8
DIM1
390
4D3
100
AcDbText
 10
0.339728406922
 20
7.053338851188
 30
0.0
 40
0.04
  1
REV. A:  INITIAL RELEASE  4/10/95
100
AcDbText
  0
ENDBLK
  5
37
100
AcDbEntity
  8
0
390
4D3
100
AcDbBlockEnd
  0
BLOCK
  5
38
100
AcDbEntity
  8
0
390
4D3
100
AcDbBlockBegin
  2
TR25F
 70
          64
 10
0.0
 20
0.0
 30
0.0
  3
TR25F
  1

  0
TEXT
  5
39
100
AcDbEntity
  8
DIM1
390
4D3
100
AcDbText
 10
2.013039227664
 20
-1.200841213923
 30
0.0
 40
0.1
  1
FAS 1 3/8       
100
AcDbText
  0
TEXT
  5
3A
100
AcDbEntity
  8
DIM1
390
4D3
100
AcDbText
 10
2.013039227664
 20
-1.034174547257
 30
0.0
 40
0.1
  1
                 "L"
100
AcDbText
  0
TEXT
  5
3B
100
AcDbEntity
  8
DIM1
390
4D3
100
AcDbText
 10
3.0549251735
 20
1.005318287325
 30
0.0
 40
0.08
  1
0.04
 72
           1
 11
3.1613251735
 21
1.045318287325
 31
0.0
100
AcDbText
 73
           2
  0
SOLID
  5
3C
100
AcDbEntity
  8
DIM1
390
4D3
100
AcDbTrace
 10
2.818513910792
 20
1.075318287325
 30
0.0
 11
2.818513910792
 21
1.015318287325
 31
0.0
 12
2.638513910792
 22
1.045318287325
 32
0.0
 13
2.638513910792
 23
1.045318287325
 33
0.0
  0
SOLID
  5
3D
100
AcDbEntity
  8
DIM1
390
4D3
100
AcDbTrace
 10
2.418513910795
 20
1.075318287325
 30
0.0
 11
2.418513910795
 21
1.015318287325
 31
0.0
 12
2.598513910795
 22
1.045318287325
 32
0.0
 13
2.598513910795
 23
1.045318287325
 33
0.0
  0
LINE
  5
3E
100
AcDbEntity
  8
DIM1
390
4D3
100
AcDbLine
 10
2.818513910792
 20
1.045318287325
 30
0.0
 11
2.998513910792
 21
1.045318287325
 31
0.0
  0
LINE
  5
3F
100
AcDbEntity
  8
DIM1
390
4D3
100
AcDbLine
 10
2.418513910795
 20
1.045318287325
 30
0.0
 11
2.238513910795
 21
1.045318287325
 31
0.0
  0
LINE
  5
40
100
AcDbEntity
  8
DIM1
390
4D3
100
AcDbLine
 10
2.638513910792
 20
0.752755136867
 30
0.0
 11
2.638513910792
 21
1.105318287325
 31
0.0
  0
LINE
  5
41
100
AcDbEntity
  8
DIM1
390
4D3
100
AcDbLine
 10
2.598513910795
 20
0.767755136865
 30
0.0
 11
2.598513910795
 21
1.105318287325
 31
0.0
  0
TEXT
  5
42
100
AcDbEntity
  8
DIM1
390
4D3
100
AcDbText
 10
3.191980703493
 20
0.540255136878
 30
0.0
 40
0.08
  1
%%C0.230
 72
           1
 11
3.378380703493
 21
0.580255136878
 31
0.0
100
AcDbText
 73
           2
  0
SOLID
  5
43
100
AcDbEntity
  8
DIM1
390
4D3
100
AcDbTrace
 10
3.348380703493
 20
0.285255136889
 30
0.0
 11
3.408380703493
 21
0.285255136889
 31
0.0
 12
3.378380703493
 22
0.465255136889
 32
0.0
 13
3.378380703493
 23
0.465255136889
 33
0.0
  0
SOLID
  5
44
100
AcDbEntity
  8
DIM1
390
4D3
100
AcDbTrace
 10
3.348380703493
 20
0.875255136867
 30
0.0
 11
3.408380703493
 21
0.875255136867
 31
0.0
 12
3.378380703493
 22
0.695255136867
 32
0.0
 13
3.378380703493
 23
0.695255136867
 33
0.0
  0
LINE
  5
45
100
AcDbEntity
  8
DIM1
390
4D3
100
AcDbLine
 10
3.378380703493
 20
0.285255136889
 30
0.0
 11
3.378380703493
 21
0.105255136889
 31
0.0
  0
LINE
  5
46
100
AcDbEntity
  8
DIM1
390
4D3
100
AcDbLine
 10
3.378380703493
 20
0.875255136867
 30
0.0
 11
3.378380703493
 21
1.055255136867
 31
0.0
  0
LINE
  5
47
100
AcDbEntity
  8
DIM1
390
4D3
100
AcDbLine
 10
2.701013910792
 20
0.465255136889
 30
0.0
 11
3.438380703493
 21
0.465255136889
 31
0.0
  0
LINE
  5
48
100
AcDbEntity
  8
DIM1
390
4D3
100
AcDbLine
 10
2.701013910792
 20
0.695255136867
 30
0.0
 11
3.438380703493
 21
0.695255136867
 31
0.0
  0
TEXT
  5
49
100
AcDbEntity
  8
DIM1
390
4D3
100
AcDbText
 10
-2.060418686604
 20
0.89463131312
 30
0.0
 40
0.08
  1
CLASS 3
 72
           2
 11
-1.526818686604
 21
0.93463131312
 31
0.0
100
AcDbText
 73
           2
  0
TEXT
  5
4A
100
AcDbEntity
  8
DIM1
390
4D3
100
AcDbText
 10
-0.595452000944
 20
-0.876651382721
 30
0.0
 40
0.08
  1
BALL SEAT
 11
-0.595452000944
 21
-0.836651382721
 31
0.0
100
AcDbText
 73
           2
  0
LINE
  5
4B
100
AcDbEntity
  8
DIM1
390
4D3
100
AcDbLine
 39
0.18
 10
-2.318438733762
 20
-2.191764013025
 30
0.0
 11
-2.318601795539
 21
-2.221186357022
 31
0.0
  0
LINE
  5
4C
100
AcDbEntity
  8
DIM1
390
4D3
100
AcDbLine
 39
0.18
 10
-2.315442794577
 20
-1.651186357022
 30
0.0
 11
-2.315598732011
 21
-1.679323207516
 31
0.0
  0
TEXT
  5
4D
100
AcDbEntity
  8
DIM1
390
4D3
100
AcDbText
 10
-1.130867517566
 20
-1.855677962484
 30
0.0
 40
0.05
  1
-0.0000
 72
           1
 11
-1.002117517566
 21
-1.830677962484
 31
0.0
100
AcDbText
 73
           2
  0
TEXT
  5
4E
100
AcDbEntity
  8
DIM1
390
4D3
100
AcDbText
 10
-1.135117517566
 20
-1.780935240739
 30
0.0
 40
0.05
  1
+0.0005
 72
           1
 11
-1.002117517566
 21
-1.755935240739
 31
0.0
100
AcDbText
 73
           2
  0
TEXT
  5
4F
100
AcDbEntity
  8
DIM1
390
4D3
100
AcDbText
 10
-2.535986668151
 20
-3.144457851438
 30
0.0
 40
0.09
  1
SECTION VIEW
100
AcDbText
  0
LINE
  5
50
100
AcDbEntity
  8
DIM1
390
4D3
100
AcDbLine
 39
0.162
 10
-1.318412286512
 20
-3.193957851438
 30
0.0
 11
-2.720486668151
 21
-3.193957851438
 31
0.0
  0
LINE
  5
51
100
AcDbEntity
  8
DIM1
390
4D3
100
AcDbLine
 39
0.162
 10
-2.621486668151
 20
-3.166957851438
 30
0.0
 11
-1.421912286512
 21
-3.166957851438
 31
0.0
  0
TEXT
  5
52
100
AcDbEntity
  8
DIM1
390
4D3
100
AcDbText
 10
1.742113910842
 20
1.257248882695
 30
0.0
 40
0.08
  1
0.850
 72
           1
 11
1.888513910842
 21
1.297248882695
 31
0.0
100
AcDbText
 73
           2
  0
SOLID
  5
53
100
AcDbEntity
  8
DIM1
390
4D3
100
AcDbTrace
 10
1.318513910892
 20
1.327248882695
 30
0.0
 11
1.318513910892
 21
1.267248882695
 31
0.0
 12
1.138513910892
 22
1.297248882695
 32
0.0
 13
1.138513910892
 23
1.297248882695
 33
0.0
  0
SOLID
  5
54
100
AcDbEntity
  8
DIM1
390
4D3
100
AcDbTrace
 10
2.458513910792
 20
1.327248882695
 30
0.0
 11
2.458513910792
 21
1.267248882695
 31
0.0
 12
2.638513910792
 22
1.297248882695
 32
0.0
 13
2.638513910792
 23
1.297248882695
 33
0.0
  0
LINE
  5
55
100
AcDbEntity
  8
DIM1
390
4D3
100
AcDbLine
 10
1.318513910892
 20
1.297248882695
 30
0.0
 11
1.665180577509
 21
1.297248882695
 31
0.0
  0
LINE
  5
56
100
AcDbEntity
  8
DIM1
390
4D3
100
AcDbLine
 10
2.458513910792
 20
1.297248882695
 30
0.0
 11
2.111847244176
 21
1.297248882695
 31
0.0
  0
LINE
  5
57
100
AcDbEntity
  8
DIM1
390
4D3
100
AcDbLine
 10
1.138513910892
 20
0.767755136865
 30
0.0
 11
1.138513910892
 21
1.357248882695
 31
0.0
  0
LINE
  5
58
100
AcDbEntity
  8
DIM1
390
4D3
100
AcDbLine
 10
2.638513910792
 20
0.752755136867
 30
0.0
 11
2.638513910792
 21
1.357248882695
 31
0.0
  0
LINE
  5
59
100
AcDbEntity
  8
SHEET1
390
4D3
100
AcDbLine
 39
0.179999999982
 10
1.188513910892
 20
0.520255136878
 30
0.0
 11
1.188513910892
 21
0.640255136878
 31
0.0
  0
LINE
  5
5A
100
AcDbEntity
  8
SHEET1
390
4D3
100
AcDbLine
 39
0.179999999982
 10
1.238513910892
 20
0.45525513689
 30
0.0
 11
1.238513910892
 21
0.705255136865
 31
0.0
  0
LINE
  5
5B
100
AcDbEntity
  8
SHEET1
390
4D3
100
AcDbLine
 39
0.179999999982
 10
1.288513910892
 20
0.520255136878
 30
0.0
 11
1.288513910892
 21
0.640255136878
 31
0.0
  0
LINE
  5
5C
100
AcDbEntity
  8
SHEET1
390
4D3
100
AcDbLine
 39
0.179999999982
 10
1.338513910892
 20
0.45525513689
 30
0.0
 11
1.338513910892
 21
0.705255136865
 31
0.0
  0
LINE
  5
5D
100
AcDbEntity
  8
SHEET1
390
4D3
100
AcDbLine
 39
0.179999999982
 10
1.388513910892
 20
0.520255136878
 30
0.0
 11
1.388513910892
 21
0.640255136878
 31
0.0
  0
LINE
  5
5E
100
AcDbEntity
  8
SHEET1
390
4D3
100
AcDbLine
 39
0.179999999982
 10
1.438513910892
 20
0.45525513689
 30
0.0
 11
1.438513910892
 21
0.705255136865
 31
0.0
  0
LINE
  5
5F
100
AcDbEntity
  8
SHEET1
390
4D3
100
AcDbLine
 39
0.179999999982
 10
1.488513910892
 20
0.520255136878
 30
0.0
 11
1.488513910892
 21
0.640255136878
 31
0.0
  0
LINE
  5
60
100
AcDbEntity
  8
SHEET1
390
4D3
100
AcDbLine
 39
0.179999999982
 10
1.538513910892
 20
0.45525513689
 30
0.0
 11
1.538513910892
 21
0.705255136865
 31
0.0
  0
LINE
  5
61
100
AcDbEntity
  8
SHEET1
390
4D3
100
AcDbLine
 39
0.179999999982
 10
1.588513910892
 20
0.520255136878
 30
0.0
 11
1.588513910892
 21
0.640255136878
 31
0.0
  0
LINE
  5
62
100
AcDbEntity
  8
SHEET1
390
4D3
100
AcDbLine
 39
0.179999999982
 10
1.138513910892
 20
0.45525513689
 30
0.0
 11
1.138513910892
 21
0.705255136865
 31
0.0
  0
TEXT
  5
63
100
AcDbEntity
  8
DIM1
390
4D3
100
AcDbText
 10
-0.595452000944
 20
-1.274365253496
 30
0.0
 40
0.08
  1
(BALL1875GR25)
 11
-0.595452000944
 21
-1.234365253496
 31
0.0
100
AcDbText
 73
           2
  0
TEXT
  5
64
100
AcDbEntity
  8
DIM1
390
4D3
100
AcDbText
 10
-0.595452000944
 20
-1.136957647711
 30
0.0
 40
0.08
  1
%%C0.1875 TEST BALL
 11
-0.595452000944
 21
-1.096957647711
 31
0.0
100
AcDbText
 73
           2
  0
TEXT
  5
65
100
AcDbEntity
  8
DIM1
390
4D3
100
AcDbText
 10
-0.595452000944
 20
-1.007631536272
 30
0.0
 40
0.08
  1
90%%D INCLUDED ANGLE
 11
-0.595452000944
 21
-0.967631536272
 31
0.0
100
AcDbText
 73
           2
  0
LINE
  5
66
100
AcDbEntity
  8
DIM1
390
4D3
100
AcDbLine
 10
-0.816922499653
 20
-0.831800265922
 30
0.0
 11
-0.636922499653
 21
-0.831800265922
 31
0.0
  0
LINE
  5
67
100
AcDbEntity
  8
DIM1
390
4D3
100
AcDbLine
 10
-1.792105705823
 20
-1.805949199503
 30
0.0
 11
-0.816922499653
 21
-0.831800265922
 31
0.0
  0
SOLID
  5
68
100
AcDbEntity
  8
DIM1
390
4D3
100
AcDbTrace
 10
-1.770964253748
 20
-1.827233912424
 30
0.0
 11
-1.813247157898
 21
-1.784664486581
 31
0.0
 12
-1.919813983353
 22
-1.932797911953
 32
0.0
 13
-1.919813983353
 23
-1.932797911953
 33
0.0
  0
TEXT
  5
69
100
AcDbEntity
  8
DIM1
390
4D3
100
AcDbText
 10
-1.37682044684
 20
-1.98380778237
 30
0.0
 40
0.08
  1
0.1880
 72
           1
 11
-1.20362044684
 21
-1.94380778237
 31
0.0
100
AcDbText
 73
           2
  0
SOLID
  5
6A
100
AcDbEntity
  8
DIM1
390
4D3
100
AcDbTrace
 10
-1.218906124366
 20
-1.471186357022
 30
0.0
 11
-1.158906124366
 21
-1.471186357022
 31
0.0
 12
-1.188906124366
 22
-1.651186357022
 32
0.0
 13
-1.188906124366
 23
-1.651186357022
 33
0.0
  0
SOLID
  5
6B
100
AcDbEntity
  8
DIM1
390
4D3
100
AcDbTrace
 10
-1.218906124366
 20
-2.394394911887
 30
0.0
 11
-1.158906124366
 21
-2.394394911887
 31
0.0
 12
-1.188906124366
 22
-2.214394911887
 32
0.0
 13
-1.188906124366
 23
-2.214394911887
 33
0.0
  0
LINE
  5
6C
100
AcDbEntity
  8
DIM1
390
4D3
100
AcDbLine
 10
-1.188906124366
 20
-1.471186357022
 30
0.0
 11
-1.188906124366
 21
-1.291186357022
 31
0.0
  0
LINE
  5
6D
100
AcDbEntity
  8
DIM1
390
4D3
100
AcDbLine
 10
-1.188906124366
 20
-2.394394911887
 30
0.0
 11
-1.188906124366
 21
-2.574394911887
 31
0.0
  0
LINE
  5
6E
100
AcDbEntity
  8
DIM1
390
4D3
100
AcDbLine
 10
-2.09729357095
 20
-1.651186357022
 30
0.0
 11
-1.128906124366
 21
-1.651186357022
 31
0.0
  0
LINE
  5
6F
100
AcDbEntity
  8
DIM1
390
4D3
100
AcDbLine
 10
-2.09729357095
 20
-2.214394911887
 30
0.0
 11
-1.128906124366
 21
-2.214394911887
 31
0.0
  0
TEXT
  5
70
100
AcDbEntity
  8
DIM1
390
4D3
100
AcDbText
 10
-2.878018496859
 20
-0.951044424421
 30
0.0
 40
0.08
  1
0.080
 72
           1
 11
-2.738418496859
 21
-0.911044424421
 31
0.0
100
AcDbText
 73
           2
  0
SOLID
  5
71
100
AcDbEntity
  8
DIM1
390
4D3
100
AcDbTrace
 10
-1.73979357095
 20
-0.881044424421
 30
0.0
 11
-1.73979357095
 21
-0.941044424421
 31
0.0
 12
-1.91979357095
 22
-0.911044424421
 32
0.0
 13
-1.91979357095
 23
-0.911044424421
 33
0.0
  0
SOLID
  5
72
100
AcDbEntity
  8
DIM1
390
4D3
100
AcDbTrace
 10
-2.33979357095
 20
-0.881044424421
 30
0.0
 11
-2.33979357095
 21
-0.941044424421
 31
0.0
 12
-2.15979357095
 22
-0.911044424421
 32
0.0
 13
-2.15979357095
 23
-0.911044424421
 33
0.0
  0
LINE
  5
73
100
AcDbEntity
  8
DIM1
390
4D3
100
AcDbLine
 10
-1.73979357095
 20
-0.911044424421
 30
0.0
 11
-1.55979357095
 21
-0.911044424421
 31
0.0
  0
LINE
  5
74
100
AcDbEntity
  8
DIM1
390
4D3
100
AcDbLine
 10
-2.33979357095
 20
-0.911044424421
 30
0.0
 11
-2.51979357095
 21
-0.911044424421
 31
0.0
  0
LINE
  5
75
100
AcDbEntity
  8
DIM1
390
4D3
100
AcDbLine
 10
-1.91979357095
 20
-1.873686357022
 30
0.0
 11
-1.91979357095
 21
-0.851044424421
 31
0.0
  0
LINE
  5
76
100
AcDbEntity
  8
DIM1
390
4D3
100
AcDbLine
 10
-2.15979357095
 20
-1.543686357022
 30
0.0
 11
-2.15979357095
 21
-0.851044424421
 31
0.0
  0
LINE
  5
77
100
AcDbEntity
  8
SHEET1
390
4D3
100
AcDbLine
 39
0.54
 10
-2.15979357095
 20
-1.657977802157
 30
0.0
 11
-2.15979357095
 21
-1.606186357022
 31
0.0
  0
CIRCLE
  5
78
100
AcDbEntity
  8
DIM1
390
4D3
100
AcDbCircle
 39
0.54
 10
-2.20104357095
 20
-1.936186357022
 30
0.0
 40
0.28125
  0
TEXT
  5
79
100
AcDbEntity
  8
DIM1
390
4D3
100
AcDbText
 10
4.620263655297
 20
3.110793241287
 30
0.0
 40
0.04
  1
REV. A:  INITIAL RELEASE  4/10/95
100
AcDbText
  0
TEXT
  5
7A
100
AcDbEntity
  8
DIM1
390
4D3
100
AcDbText
 10
4.268452341393
 20
-3.947615931588
 30
0.0
 40
0.05
  1
A
 72
           1
 11
4.285202341393
 21
-3.947615931588
 31
0.0
100
AcDbText
  0
TEXT
  5
7B
100
AcDbEntity
  8
DIM1
390
4D3
100
AcDbText
 10
0.598793371833
 20
0.540255136878
 30
0.0
 40
0.08
  1
%%C0.250
 72
           1
 11
0.785193371833
 21
0.580255136878
 31
0.0
100
AcDbText
 73
           2
  0
SOLID
  5
7C
100
AcDbEntity
  8
DIM1
390
4D3
100
AcDbTrace
 10
0.755193371833
 20
0.27525513689
 30
0.0
 11
0.815193371833
 21
0.27525513689
 31
0.0
 12
0.785193371833
 22
0.45525513689
 32
0.0
 13
0.785193371833
 23
0.45525513689
 33
0.0
  0
SOLID
  5
7D
100
AcDbEntity
  8
DIM1
390
4D3
100
AcDbTrace
 10
0.755193371833
 20
0.885255136865
 30
0.0
 11
0.815193371833
 21
0.885255136865
 31
0.0
 12
0.785193371833
 22
0.705255136865
 32
0.0
 13
0.785193371833
 23
0.705255136865
 33
0.0
  0
LINE
  5
7E
100
AcDbEntity
  8
DIM1
390
4D3
100
AcDbLine
 10
0.785193371833
 20
0.27525513689
 30
0.0
 11
0.785193371833
 21
0.09525513689
 31
0.0
  0
LINE
  5
7F
100
AcDbEntity
  8
DIM1
390
4D3
100
AcDbLine
 10
0.785193371833
 20
0.885255136865
 30
0.0
 11
0.785193371833
 21
1.065255136865
 31
0.0
  0
LINE
  5
80
100
AcDbEntity
  8
DIM1
390
4D3
100
AcDbLine
 10
1.076013910892
 20
0.45525513689
 30
0.0
 11
0.725193371833
 21
0.45525513689
 31
0.0
  0
LINE
  5
81
100
AcDbEntity
  8
DIM1
390
4D3
100
AcDbLine
 10
1.076013910892
 20
0.705255136865
 30
0.0
 11
0.725193371833
 21
0.705255136865
 31
0.0
  0
TEXT
  5
82
100
AcDbEntity
  8
DIM1
390
4D3
100
AcDbText
 10
4.283719615613
 20
-4.159337502635
 30
0.0
 40
0.06
  1
TR25F085
100
AcDbText
  0
LINE
  5
83
100
AcDbEntity
  8
0
390
4D3
 62
           0
100
AcDbLine
 39
0.18
 10
-2.209376777399
 20
-1.651186357022
 30
0.0
 11
-2.299376777399
 21
-1.561186357022
 31
0.0
  0
LINE
  5
84
100
AcDbEntity
  8
0
390
4D3
 62
           0
100
AcDbLine
 39
0.18
 10
-2.315442794577
 20
-1.651186357022
 30
0.0
 11
-2.405442794577
 21
-1.561186357022
 31
0.0
  0
LINE
  5
85
100
AcDbEntity
  8
0
390
4D3
 62
           0
100
AcDbLine
 39
0.18
 10
-2.370055303647
 20
-1.70263986513
 30
0.0
 11
-2.511508811755
 21
-1.561186357022
 31
0.0
  0
LINE
  5
86
100
AcDbEntity
  8
0
390
4D3
 62
           0
100
AcDbLine
 39
0.18
 10
-2.423088312236
 20
-1.755672873719
 30
0.0
 11
-2.617574828933
 21
-1.561186357022
 31
0.0
  0
LINE
  5
87
100
AcDbEntity
  8
0
390
4D3
 62
           0
100
AcDbLine
 39
0.18
 10
-2.476121320825
 20
-1.808705882308
 30
0.0
 11
-2.723640846111
 21
-1.561186357022
 31
0.0
  0
LINE
  5
88
100
AcDbEntity
  8
0
390
4D3
 62
           0
100
AcDbLine
 39
0.18
 10
-2.529154329414
 20
-1.861738890897
 30
0.0
 11
-2.829706863289
 21
-1.561186357022
 31
0.0
  0
LINE
  5
89
100
AcDbEntity
  8
0
390
4D3
 62
           0
100
AcDbLine
 39
0.18
 10
-2.15979357095
 20
-2.231099649361
 30
0.0
 11
-2.162706863289
 21
-2.228186357022
 31
0.0
  0
LINE
  5
8A
100
AcDbEntity
  8
0
390
4D3
 62
           0
100
AcDbLine
 39
0.18
 10
-2.928235000712
 20
-2.311186357022
 30
0.0
 11
-2.967864703359
 21
-2.271556654375
 31
0.0
  0
LINE
  5
8B
100
AcDbEntity
  8
0
390
4D3
 62
           0
100
AcDbLine
 39
0.18
 10
-2.822168983534
 20
-2.311186357022
 30
0.0
 11
-2.915477122898
 21
-2.217878217658
 31
0.0
  0
LINE
  5
8C
100
AcDbEntity
  8
0
390
4D3
 62
           0
100
AcDbLine
 39
0.18
 10
-2.716102966356
 20
-2.311186357022
 30
0.0
 11
-2.863089542437
 21
-2.164199780941
 31
0.0
  0
LINE
  5
8D
100
AcDbEntity
  8
0
390
4D3
 62
           0
100
AcDbLine
 39
0.18
 10
-2.610036949178
 20
-2.311186357022
 30
0.0
 11
-2.889276262566
 21
-2.031947043634
 31
0.0
  0
LINE
  5
8E
100
AcDbEntity
  8
0
390
4D3
 62
           0
100
AcDbLine
 39
0.18
 10
-2.503970932001
 20
-2.311186357022
 30
0.0
 11
-2.919878558642
 21
-1.89527873038
 31
0.0
  0
LINE
  5
8F
100
AcDbEntity
  8
0
390
4D3
 62
           0
100
AcDbLine
 39
0.18
 10
-2.397904914823
 20
-2.311186357022
 30
0.0
 11
-2.871656796078
 21
-1.837434475766
 31
0.0
  0
LINE
  5
90
100
AcDbEntity
  8
0
390
4D3
 62
           0
100
AcDbLine
 39
0.18
 10
-2.291838897645
 20
-2.311186357022
 30
0.0
 11
-2.942835302766
 21
-1.6601899519
 31
0.0
  0
LINE
  5
91
100
AcDbEntity
  8
0
390
4D3
 62
           0
100
AcDbLine
 39
0.18
 10
-2.582187338003
 20
-1.914771899486
 30
0.0
 11
-2.935772880467
 21
-1.561186357022
 31
0.0
  0
LINE
  5
92
100
AcDbEntity
  8
0
390
4D3
 62
           0
100
AcDbLine
 39
0.18
 10
-2.207113110628
 20
-2.289846126861
 30
0.0
 11
-2.275772880467
 21
-2.221186357022
 31
0.0
  0
LINE
  5
93
100
AcDbEntity
  8
SHEET1
390
4D3
100
AcDbLine
 39
0.18
 10
-2.826249298361
 20
-2.126451774774
 30
0.0
 11
-3.006541392975
 21
-2.311186357022
 31
0.0
  0
LINE
  5
94
100
AcDbEntity
  8
SHEET1
390
4D3
100
AcDbLine
 39
0.18
 10
-2.953514306324
 20
-1.93562637944
 30
0.0
 11
-2.826249298361
 21
-2.126451774774
 31
0.0
  0
LINE
  5
95
100
AcDbEntity
  8
SHEET1
390
4D3
100
AcDbLine
 39
0.18
 10
-2.847460133022
 20
-1.808409449218
 30
0.0
 11
-2.953514306324
 21
-1.93562637944
 31
0.0
  0
LINE
  5
96
100
AcDbEntity
  8
SHEET1
390
4D3
100
AcDbLine
 39
0.18
 10
-3.006541392975
 20
-1.561186357022
 30
0.0
 11
-2.847460133022
 21
-1.808409449218
 31
0.0
  0
TEXT
  5
97
100
AcDbEntity
  8
DIM1
390
4D3
100
AcDbText
 10
-2.058426920999
 20
1.025611466671
 30
0.0
 40
0.08
  1
1/4-80 THREAD
 72
           2
 11
-1.084826920999
 21
1.065611466671
 31
0.0
100
AcDbText
 73
           2
  0
LINE
  5
98
100
AcDbEntity
  8
DIM1
390
4D3
100
AcDbLine
 10
-0.835745661046
 20
1.065611466671
 30
0.0
 11
-0.994826920999
 21
1.065611466671
 31
0.0
  0
LINE
  5
99
100
AcDbEntity
  8
DIM1
390
4D3
100
AcDbLine
 10
-1.238032570165
 20
0.768163949363
 30
0.0
 11
-0.835745661046
 21
1.065611466671
 31
0.0
  0
SOLID
  5
9A
100
AcDbEntity
  8
DIM1
390
4D3
100
AcDbTrace
 10
-1.220196766157
 20
0.74404167552
 30
0.0
 11
-1.255868374174
 21
0.792286223206
 31
0.0
 12
-1.382766213223
 22
0.661149125309
 32
0.0
 13
-1.382766213223
 23
0.661149125309
 33
0.0
  0
TEXT
  5
9B
100
AcDbEntity
  8
DIM1
390
4D3
100
AcDbText
 10
3.605790265101
 20
-0.088575247805
 30
0.0
 40
0.08
  1
SEE SECTION VIEW
 11
3.605790265101
 21
-0.048575247805
 31
0.0
100
AcDbText
 73
           2
  0
LINE
  5
9C
100
AcDbEntity
  8
DIM1
390
4D3
100
AcDbLine
 10
3.229443997185
 20
-0.048575247805
 30
0.0
 11
3.515790265101
 21
-0.048575247805
 31
0.0
  0
LINE
  5
9D
100
AcDbEntity
  8
DIM1
390
4D3
100
AcDbLine
 10
2.762127806282
 20
0.446066084636
 30
0.0
 11
3.229443997185
 21
-0.048575247805
 31
0.0
  0
SOLID
  5
9E
100
AcDbEntity
  8
DIM1
390
4D3
100
AcDbTrace
 10
2.740320821645
 20
0.425463768721
 30
0.0
 11
2.783934790918
 21
0.46666840055
 31
0.0
 12
2.638513910792
 22
0.576907992456
 32
0.0
 13
2.638513910792
 23
0.576907992456
 33
0.0
  0
LINE
  5
9F
100
AcDbEntity
  8
SHEET1
390
4D3
100
AcDbLine
 39
0.179999999982
 10
2.538513910892
 20
0.45525513689
 30
0.0
 11
2.538513910892
 21
0.705255136865
 31
0.0
  0
LINE
  5
A0
100
AcDbEntity
  8
SHEET1
390
4D3
100
AcDbLine
 39
0.179999999982
 10
2.338513910892
 20
0.45525513689
 30
0.0
 11
2.338513910892
 21
0.705255136865
 31
0.0
  0
LINE
  5
A1
100
AcDbEntity
  8
SHEET1
390
4D3
100
AcDbLine
 39
0.179999999982
 10
2.138513910892
 20
0.45525513689
 30
0.0
 11
2.138513910892
 21
0.705255136865
 31
0.0
  0
LINE
  5
A2
100
AcDbEntity
  8
SHEET1
390
4D3
100
AcDbLine
 39
0.179999999982
 10
1.938513910892
 20
0.45525513689
 30
0.0
 11
1.938513910892
 21
0.705255136865
 31
0.0
  0
LINE
  5
A3
100
AcDbEntity
  8
SHEET1
390
4D3
100
AcDbLine
 39
0.179999999982
 10
1.738513910892
 20
0.45525513689
 30
0.0
 11
1.738513910892
 21
0.705255136865
 31
0.0
  0
LINE
  5
A4
100
AcDbEntity
  8
SHEET1
390
4D3
100
AcDbLine
 39
0.179999999982
 10
2.488513910892
 20
0.520255136878
 30
0.0
 11
2.488513910892
 21
0.640255136878
 31
0.0
  0
LINE
  5
A5
100
AcDbEntity
  8
SHEET1
390
4D3
100
AcDbLine
 39
0.179999999982
 10
2.388513910892
 20
0.520255136878
 30
0.0
 11
2.388513910892
 21
0.640255136878
 31
0.0
  0
LINE
  5
A6
100
AcDbEntity
  8
SHEET1
390
4D3
100
AcDbLine
 39
0.179999999982
 10
2.288513910892
 20
0.520255136878
 30
0.0
 11
2.288513910892
 21
0.640255136878
 31
0.0
  0
LINE
  5
A7
100
AcDbEntity
  8
SHEET1
390
4D3
100
AcDbLine
 39
0.179999999982
 10
2.188513910892
 20
0.520255136878
 30
0.0
 11
2.188513910892
 21
0.640255136878
 31
0.0
  0
LINE
  5
A8
100
AcDbEntity
  8
SHEET1
390
4D3
100
AcDbLine
 39
0.179999999982
 10
2.088513910892
 20
0.520255136878
 30
0.0
 11
2.088513910892
 21
0.640255136878
 31
0.0
  0
LINE
  5
A9
100
AcDbEntity
  8
SHEET1
390
4D3
100
AcDbLine
 39
0.179999999982
 10
1.988513910892
 20
0.520255136878
 30
0.0
 11
1.988513910892
 21
0.640255136878
 31
0.0
  0
LINE
  5
AA
100
AcDbEntity
  8
SHEET1
390
4D3
100
AcDbLine
 39
0.179999999982
 10
1.888513910892
 20
0.520255136878
 30
0.0
 11
1.888513910892
 21
0.640255136878
 31
0.0
  0
LINE
  5
AB
100
AcDbEntity
  8
SHEET1
390
4D3
100
AcDbLine
 39
0.179999999982
 10
1.788513910892
 20
0.520255136878
 30
0.0
 11
1.788513910892
 21
0.640255136878
 31
0.0
  0
LINE
  5
AC
100
AcDbEntity
  8
SHEET1
390
4D3
100
AcDbLine
 39
0.179999999982
 10
1.688513910892
 20
0.520255136878
 30
0.0
 11
1.688513910892
 21
0.640255136878
 31
0.0
  0
LINE
  5
AD
100
AcDbEntity
  8
SHEET1
390
4D3
100
AcDbLine
 39
0.179999999982
 10
2.438513910892
 20
0.45525513689
 30
0.0
 11
2.438513910892
 21
0.705255136865
 31
0.0
  0
LINE
  5
AE
100
AcDbEntity
  8
SHEET1
390
4D3
100
AcDbLine
 39
0.179999999982
 10
2.238513910892
 20
0.45525513689
 30
0.0
 11
2.238513910892
 21
0.705255136865
 31
0.0
  0
LINE
  5
AF
100
AcDbEntity
  8
SHEET1
390
4D3
100
AcDbLine
 39
0.179999999982
 10
2.038513910892
 20
0.45525513689
 30
0.0
 11
2.038513910892
 21
0.705255136865
 31
0.0
  0
LINE
  5
B0
100
AcDbEntity
  8
SHEET1
390
4D3
100
AcDbLine
 39
0.179999999982
 10
1.838513910892
 20
0.45525513689
 30
0.0
 11
1.838513910892
 21
0.705255136865
 31
0.0
  0
LINE
  5
B1
100
AcDbEntity
  8
SHEET1
390
4D3
100
AcDbLine
 39
0.179999999982
 10
1.638513910892
 20
0.45525513689
 30
0.0
 11
1.638513910892
 21
0.705255136865
 31
0.0
  0
LINE
  5
B2
100
AcDbEntity
  8
SHEET1
390
4D3
100
AcDbLine
 39
0.54
 10
-2.24979357095
 20
-2.311186357022
 30
0.0
 11
-2.15979357095
 21
-2.266186357022
 31
0.0
  0
LINE
  5
B3
100
AcDbEntity
  8
SHEET1
390
4D3
100
AcDbLine
 39
0.54
 10
-2.24979357095
 20
-1.561186357022
 30
0.0
 11
-2.15979357095
 21
-1.606186357022
 31
0.0
  0
LINE
  5
B4
100
AcDbEntity
  8
SHEET1
390
4D3
100
AcDbLine
 39
0.54
 10
-2.15979357095
 20
-2.266186357022
 30
0.0
 11
-2.15979357095
 21
-2.214394911887
 31
0.0
  0
LINE
  5
B5
100
AcDbEntity
  8
SHEET1
390
4D3
  6
CONTINUOUS
100
AcDbLine
 39
0.54
 10
-2.15979357095
 20
-2.221186357022
 30
0.0
 11
-2.318601795539
 21
-2.221186357022
 31
0.0
  0
LINE
  5
B6
100
AcDbEntity
  8
SHEET1
390
4D3
  6
CONTINUOUS
100
AcDbLine
 39
0.54
 10
-2.15979357095
 20
-1.651186357022
 30
0.0
 11
-2.318601795539
 21
-1.651186357022
 31
0.0
  0
LINE
  5
B7
100
AcDbEntity
  8
SHEET1
390
4D3
  6
CONTINUOUS
100
AcDbLine
 39
0.54
 10
-2.603601795539
 20
-1.936186357022
 30
0.0
 11
-2.318601795539
 21
-1.651186357022
 31
0.0
  0
LINE
  5
B8
100
AcDbEntity
  8
SHEET1
390
4D3
  6
CONTINUOUS
100
AcDbLine
 39
0.54
 10
-2.603601795539
 20
-1.936186357022
 30
0.0
 11
-2.318601795539
 21
-2.221186357022
 31
0.0
  0
LINE
  5
B9
100
AcDbEntity
  8
SHEET1
390
4D3
100
AcDbLine
 39
0.54
 10
-2.24979357095
 20
-1.561186357022
 30
0.0
 11
-3.006541392975
 21
-1.561186357022
 31
0.0
  0
LINE
  5
BA
100
AcDbEntity
  8
SHEET1
390
4D3
100
AcDbLine
 39
0.54
 10
-3.006541392975
 20
-2.311186357022
 30
0.0
 11
-2.24979357095
 21
-2.311186357022
 31
0.0
  0
LINE
  5
BB
100
AcDbEntity
  8
SHEET1
390
4D3
100
AcDbLine
 39
0.179999999982
 10
2.598513910795
 20
0.705255136865
 30
0.0
 11
2.598513910795
 21
0.45525513689
 31
0.0
  0
LINE
  5
BC
100
AcDbEntity
  8
SHEET1
390
4D3
100
AcDbLine
 39
0.179999999982
 10
2.598513910795
 20
0.45525513689
 30
0.0
 11
2.638513910792
 21
0.465255136889
 31
0.0
  0
LINE
  5
BD
100
AcDbEntity
  8
SHEET1
390
4D3
100
AcDbLine
 39
0.179999999982
 10
2.598513910795
 20
0.705255136865
 30
0.0
 11
2.638513910792
 21
0.695255136867
 31
0.0
  0
LINE
  5
BE
100
AcDbEntity
  8
SHEET1
390
4D3
100
AcDbLine
 10
-1.478061347582
 20
0.490255136887
 30
0.0
 11
-1.478061347582
 21
0.670255136869
 31
0.0
  0
LINE
  5
BF
100
AcDbEntity
  8
SHEET1
390
4D3
100
AcDbLine
 10
-1.568061347573
 20
0.580255136878
 30
0.0
 11
-1.388061347591
 21
0.580255136878
 31
0.0
  0
CIRCLE
  5
C0
100
AcDbEntity
  8
SHEET1
390
4D3
100
AcDbCircle
 39
0.179999999982
 10
-1.478061347582
 20
0.580255136878
 30
0.0
 40
0.124999999988
  0
CIRCLE
  5
C1
100
AcDbEntity
  8
SHEET1
390
4D3
100
AcDbCircle
 39
0.179999999982
 10
-1.478061347582
 20
0.580255136878
 30
0.0
 40
0.116999999988
  0
LINE
  5
C2
100
AcDbEntity
  8
SHEET1
390
4D3
100
AcDbLine
 39
0.179999999982
 10
1.138513910892
 20
0.45525513689
 30
0.0
 11
2.598513910795
 21
0.45525513689
 31
0.0
  0
LINE
  5
C3
100
AcDbEntity
  8
SHEET1
390
4D3
100
AcDbLine
 39
0.179999999982
 10
2.598513910795
 20
0.705255136865
 30
0.0
 11
1.138513910892
 21
0.705255136865
 31
0.0
  0
LINE
  5
C4
100
AcDbEntity
  8
SHEET1
390
4D3
100
AcDbLine
 39
0.179999999982
 10
2.638513910792
 20
0.465255136889
 30
0.0
 11
2.638513910792
 21
0.695255136867
 31
0.0
  0
TEXT
  5
C5
100
AcDbEntity
  8
DIM1
390
4D3
100
AcDbText
 10
4.2503
 20
-3.968525
 30
0.0
 40
0.08
  1
 
100
AcDbText
  0
LWPOLYLINE
  5
C6
100
AcDbEntity
  8
0
390
4D3
100
AcDbPolyline
 90
        2
 70
           0
 43
0.015
 10
0.0
 20
0.0
 10
0.0
 20
0.0
  0
TEXT
  5
EE
100
AcDbEntity
  8
DIM1
390
4D3
100
AcDbText
 10
4.90135755132
 20
-3.966429052747
 30
0.0
 40
0.06
  1
1
100
AcDbText
  0
TEXT
  5
EF
100
AcDbEntity
  8
DIM1
390
4D3
100
AcDbText
 10
4.65635755132
 20
-3.966429052747
 30
0.0
 40
0.06
  1
1
100
AcDbText
  0
TEXT
  5
F0
100
AcDbEntity
  8
DIM1
390
4D3
100
AcDbText
 10
3.71635755132
 20
-4.156429052747
 30
0.0
 40
0.06
  1
1162-011
100
AcDbText
  0
TEXT
  5
F1
100
AcDbEntity
  8
DIM1
390
4D3
100
AcDbText
 10
3.70635755132
 20
-3.966429052747
 30
0.0
 40
0.06
  1
03/22/96
100
AcDbText
  0
TEXT
  5
F2
100
AcDbEntity
  8
DIM1
390
4D3
100
AcDbText
 10
4.30135755132
 20
-3.771429052747
 30
0.0
 40
0.06
  1
AC
100
AcDbText
  0
TEXT
  5
F3
100
AcDbEntity
  8
DIM1
390
4D3
100
AcDbText
 10
3.78635755132
 20
-3.771429052747
 30
0.0
 40
0.06
  1
BT
100
AcDbText
  0
TEXT
  5
F4
100
AcDbEntity
  8
DIM1
390
4D3
100
AcDbText
 10
3.83635755132
 20
-3.576429052747
 30
0.0
 40
0.06
  1
300 SERIES STAINLESS
100
AcDbText
  0
TEXT
  5
F5
100
AcDbEntity
  8
DIM1
390
4D3
100
AcDbText
 10
3.94635755132
 20
-3.246429052747
 30
0.0
 40
0.08
  1
ADJUSTMENT SCREW
100
AcDbText
  0
TEXT
  5
F6
100
AcDbEntity
  8
BORDER
390
4D3
100
AcDbText
 10
4.216385415892
 20
-4.055554923272
 30
0.11646
 40
0.04529
  1
PART NO.
100
AcDbText
  0
LWPOLYLINE
  5
F7
100
AcDbEntity
  8
0
390
4D3
100
AcDbPolyline
 90
        2
 70
           0
 43
0.015
 10
0.0
 20
0.0
 10
0.0
 20
0.0
  0
TEXT
  5
11F
100
AcDbEntity
  8
BORDER
390
4D3
100
AcDbText
 10
4.470353519062
 20
-3.958525
 30
0.0
 40
0.05
  1
A
 72
           1
 11
4.487103519062
 21
-3.958525
 31
0.0
100
AcDbText
  0
LINE
  5
120
100
AcDbEntity
  8
BORDER
390
4D3
100
AcDbLine
 39
0.18
 10
4.380774047368
 20
-3.796754923272
 30
0.0
 11
4.380774047368
 21
-3.990854923272
 31
0.0
  0
TEXT
  5
121
100
AcDbEntity
  8
BORDER
390
4D3
100
AcDbText
 10
4.419902737048
 20
-3.863525
 30
0.0
 40
0.04
  1
SIZE
 72
           1
 11
4.486702737048
 21
-3.863525
 31
0.0
100
AcDbText
  0
LINE
  5
122
100
AcDbEntity
  8
BORDER
390
4D3
100
AcDbLine
 10
5.023025528307
 20
-3.408554923272
 30
0.11646
 11
5.023025528307
 21
-4.188189923272
 31
0.11646
  0
LINE
  5
123
100
AcDbEntity
  8
BORDER
390
4D3
100
AcDbLine
 10
3.644915528307
 20
-3.097994923272
 30
0.11646
 11
5.909415528307
 21
-3.097994923272
 31
0.11646
  0
TEXT
  5
124
100
AcDbEntity
  8
BORDER
390
4D3
100
AcDbText
 10
3.703145528307
 20
-3.165929923272
 30
0.11646
 40
0.04529
  1
TITLE
100
AcDbText
  0
TEXT
  5
125
100
AcDbEntity
  8
BORDER
390
4D3
100
AcDbText
 10
3.703145528307
 20
-3.670589923272
 30
0.11646
 40
0.04
  1
DRAWN
100
AcDbText
  0
TEXT
  5
126
100
AcDbEntity
  8
BORDER
390
4D3
100
AcDbText
 10
3.706380528307
 20
-4.055554923272
 30
0.11646
 40
0.04529
  1
DWG NO.
100
AcDbText
  0
TEXT
  5
127
100
AcDbEntity
  8
BORDER
390
4D3
100
AcDbText
 10
4.212805415892
 20
-3.864689923272
 30
0.11646
 40
0.04
  1
REV
100
AcDbText
  0
TEXT
  5
128
100
AcDbEntity
  8
BORDER
390
4D3
100
AcDbText
 10
4.626343587935
 20
-3.864524839817
 30
0.11646
 40
0.04
  1
SHEET
100
AcDbText
  0
TRACE
  5
129
100
AcDbEntity
  8
BORDER
390
4D3
100
AcDbTrace
 10
5.909415528307
 20
-2.855369923272
 30
0.11646
 11
5.909415528307
 21
-2.823019923272
 31
0.11646
 12
3.661090528307
 22
-2.855369923272
 32
0.11646
 13
3.628740528307
 23
-2.823019923272
 33
0.11646
  0
TRACE
  5
12A
100
AcDbEntity
  8
BORDER
390
4D3
100
AcDbTrace
 10
3.661090528307
 20
-2.855369923272
 30
0.11646
 11
3.628740528307
 21
-2.823019923272
 31
0.11646
 12
3.661090528307
 22
-4.184954923272
 32
0.11646
 13
3.628740528307
 23
-4.184954923272
 33
0.11646
  0
TEXT
  5
12B
100
AcDbEntity
  8
BORDER
390
4D3
100
AcDbText
 10
3.703145528307
 20
-3.479724923272
 30
0.11646
 40
0.04529
  1
MATERIAL
100
AcDbText
  0
TEXT
  5
12C
100
AcDbEntity
  8
BORDER
390
4D3
100
AcDbText
 10
3.706380528307
 20
-3.861454923272
 30
0.11646
 40
0.04
  1
DATE
100
AcDbText
  0
TEXT
  5
12D
100
AcDbEntity
  8
BORDER
390
4D3
100
AcDbText
 10
4.772383377769
 20
-3.961739923272
 30
0.11646
 40
0.04529
  1
OF
100
AcDbText
  0
SOLID
  5
12E
100
AcDbEntity
  8
BORDER
390
4D3
100
AcDbTrace
 10
3.771106056614
 20
-3.070713846545
 30
0.23292
 11
3.807499806614
 21
-3.070713846545
 31
0.23292
 12
3.771106056614
 22
-2.918769940295
 32
0.23292
 13
3.807499806614
 23
-2.918769940295
 33
0.23292
  0
ARC
  5
12F
100
AcDbEntity
  8
BORDER
390
4D3
100
AcDbCircle
 10
4.719606268611
 20
-3.020728796394
 30
0.23292
 40
0.046538473821
100
AcDbArc
 50
5.7976668128
 51
41.821431110538
  0
LWPOLYLINE
  5
130
100
AcDbEntity
  8
BORDER
390
4D3
100
AcDbPolyline
 90
       14
 70
           0
 38
0.23292
 10
4.76590668991
 20
-3.016027675986
 10
4.795084370155
 20
-3.016027675986
 42
0.302044086476
 10
4.813743988055
 20
-3.043518279777
 42
0.26536997124
 10
4.86377321971
 20
-3.036927760684
 42
0.635606440247
 10
4.855698230272
 20
-2.999290861733
 42
-0.000943783614
 10
4.796049952256
 20
-2.985390164617
 42
-0.344245433117
 10
4.760852563096
 20
-2.941585186583
 42
-0.322222187521
 10
4.796950327683
 20
-2.889897598271
 42
-0.141736434076
 10
4.85865278491
 20
-2.886430968628
 42
-0.333774480508
 10
4.902926184496
 20
-2.93888465936
 10
4.866944116835
 20
-2.93888465936
 42
0.301979239631
 10
4.84975464175
 20
-2.914996274556
 42
0.197287562224
 10
4.811595967061
 20
-2.916105551723
 42
0.728374493268
 10
4.815934253608
 20
-2.956544624982
 42
0.001956891708
  0
LWPOLYLINE
  5
140
100
AcDbEntity
  8
BORDER
390
4D3
100
AcDbPolyline
 90
        7
 70
           0
 38
0.23292
 10
4.815934253608
 20
-2.956544624982
 42
0.001956891708
 10
4.868043910978
 20
-2.967160879551
 42
-0.213696403129
 10
4.903484875186
 20
-2.991932121654
 42
-0.207558558303
 10
4.908385884733
 20
-3.029299085414
 42
-0.231198410138
 10
4.873913188334
 20
-3.067564474537
 42
-0.176335766587
 10
4.801957867203
 20
-3.070011703308
 42
-0.211590609527
 10
4.763696396807
 20
-3.035624773744
  0
ARC
  5
149
100
AcDbEntity
  8
BORDER
390
4D3
100
AcDbCircle
 10
4.719869920737
 20
-2.934641456689
 30
0.23292
 40
0.040957331997
100
AcDbArc
 50
358.6532608214
 51
58.670205836283
  0
ARC
  5
14A
100
AcDbEntity
  8
BORDER
390
4D3
100
AcDbCircle
 10
4.726090337718
 20
-2.934787694727
 30
0.23292
 40
0.034735196272
100
AcDbArc
 50
313.15756291156
 51
358.653260821401
  0
ARC
  5
14B
100
AcDbEntity
  8
BORDER
390
4D3
100
AcDbCircle
 10
4.699127115081
 20
-2.906032127795
 30
0.23292
 40
0.074154709264
100
AcDbArc
 50
295.378395342112
 51
313.157562911559
  0
ARC
  5
14C
100
AcDbEntity
  8
BORDER
390
4D3
100
AcDbCircle
 10
4.70560740265
 20
-3.033254652372
 30
0.23292
 40
0.065323183459
100
AcDbArc
 50
41.821431110538
 51
67.211169878313
  0
ARC
  5
14D
100
AcDbEntity
  8
BORDER
390
4D3
100
AcDbCircle
 10
4.719606268611
 20
-3.020728796394
 30
0.23292
 40
0.046538473821
100
AcDbArc
 50
297.452647876124
 51
341.33231151504
  0
ARC
  5
14E
100
AcDbEntity
  8
BORDER
390
4D3
100
AcDbCircle
 10
4.705496021331
 20
-2.993568482509
 30
0.23292
 40
0.077145364036
100
AcDbArc
 50
269.999999999995
 51
297.452647876119
  0
LINE
  5
14F
100
AcDbEntity
  8
BORDER
390
4D3
100
AcDbLine
 10
4.617241177581
 20
-3.070713846545
 30
0.23292
 11
4.705496021331
 21
-3.070713846545
 31
0.23292
  0
LINE
  5
150
100
AcDbEntity
  8
BORDER
390
4D3
100
AcDbLine
 10
4.617241177581
 20
-2.888745096545
 30
0.23292
 11
4.617241177581
 21
-3.057844028848
 31
0.23292
  0
LINE
  5
151
100
AcDbEntity
  8
BORDER
390
4D3
100
AcDbLine
 10
4.702257353963
 20
-2.888745096545
 30
0.23292
 11
4.617241177581
 21
-2.888745096545
 31
0.23292
  0
ARC
  5
152
100
AcDbEntity
  8
BORDER
390
4D3
100
AcDbCircle
 10
4.702257353963
 20
-2.963575135621
 30
0.23292
 40
0.074830039076
100
AcDbArc
 50
58.670205836284
 51
90.000000000001
  0
LWPOLYLINE
  5
153
100
AcDbEntity
  8
BORDER
390
4D3
100
AcDbPolyline
 90
        3
 70
           0
 38
0.23292
 10
4.621809962864
 20
-3.070713846545
 10
4.583596525364
 20
-3.070713846545
 10
4.571544084537
 20
-3.031590565295
  0
LWPOLYLINE
  5
158
100
AcDbEntity
  8
BORDER
390
4D3
100
AcDbPolyline
 90
        4
 70
           0
 38
0.23292
 10
4.462650995676
 20
-3.039779159045
 10
4.516268087864
 20
-2.888745096545
 10
4.557211056614
 20
-2.888745096545
 10
4.617241177581
 20
-3.057844028848
  0
LINE
  5
15E
100
AcDbEntity
  8
BORDER
390
4D3
100
AcDbLine
 10
4.335209181614
 20
-2.888745096545
 30
0.23292
 11
4.335209181614
 21
-3.070713846545
 31
0.23292
  0
LINE
  5
15F
100
AcDbEntity
  8
BORDER
390
4D3
100
AcDbLine
 10
4.373422619114
 20
-2.888745096545
 30
0.23292
 11
4.335209181614
 21
-2.888745096545
 31
0.23292
  0
LINE
  5
160
100
AcDbEntity
  8
BORDER
390
4D3
100
AcDbLine
 10
4.373422619114
 20
-3.039779159045
 30
0.23292
 11
4.373422619114
 21
-2.888745096545
 31
0.23292
  0
LINE
  5
161
100
AcDbEntity
  8
BORDER
390
4D3
100
AcDbLine
 10
4.462650995676
 20
-3.039779159045
 30
0.23292
 11
4.373422619114
 21
-3.039779159045
 31
0.23292
  0
LINE
  5
162
100
AcDbEntity
  8
BORDER
390
4D3
100
AcDbLine
 10
4.335209181614
 20
-3.070713846545
 30
0.23292
 11
4.464406994114
 21
-3.070713846545
 31
0.23292
  0
LWPOLYLINE
  5
163
100
AcDbEntity
  8
BORDER
390
4D3
100
AcDbPolyline
 90
        4
 70
           0
 38
0.23292
 10
4.571544084537
 20
-3.031590565295
 10
4.50193505994
 20
-3.031590565295
 10
4.489882619114
 20
-3.070713846545
 10
4.451669181614
 20
-3.070713846545
  0
SOLID
  5
169
100
AcDbEntity
  8
BORDER
390
4D3
100
AcDbTrace
 10
3.712876056614
 20
-2.888745096545
 30
0.23292
 11
3.865729806614
 21
-2.888745096545
 31
0.23292
 12
3.712876056614
 22
-2.918769940295
 32
0.23292
 13
3.865729806614
 23
-2.918769940295
 33
0.23292
  0
SOLID
  5
16A
100
AcDbEntity
  8
BORDER
390
4D3
100
AcDbTrace
 10
3.977640587864
 20
-2.959712909045
 30
0.23292
 11
3.902123556614
 21
-2.959712909045
 31
0.23292
 12
3.977640587864
 22
-2.990647596545
 32
0.23292
 13
3.902123556614
 23
-2.990647596545
 33
0.23292
  0
SOLID
  5
16B
100
AcDbEntity
  8
BORDER
390
4D3
100
AcDbTrace
 10
3.977640587864
 20
-2.888745096545
 30
0.23292
 11
4.014034337864
 21
-2.888745096545
 31
0.23292
 12
3.977640587864
 22
-3.070713846545
 32
0.23292
 13
4.014034337864
 23
-3.070713846545
 33
0.23292
  0
SOLID
  5
16C
100
AcDbEntity
  8
BORDER
390
4D3
100
AcDbTrace
 10
3.865729806614
 20
-2.888745096545
 30
0.23292
 11
3.902123556614
 21
-2.888745096545
 31
0.23292
 12
3.865729806614
 22
-3.070713846545
 32
0.23292
 13
3.902123556614
 23
-3.070713846545
 33
0.23292
  0
SOLID
  5
16D
100
AcDbEntity
  8
BORDER
390
4D3
100
AcDbTrace
 10
4.13325703308
 20
-2.892139200823
 30
0.23292
 11
4.124066298701
 21
-2.918196958926
 31
0.23292
 12
4.09990859264
 22
-2.88505297698
 32
0.23292
 13
4.099139913037
 23
-2.911205490567
 33
0.23292
  0
SOLID
  5
16E
100
AcDbEntity
  8
BORDER
390
4D3
100
AcDbTrace
 10
4.16950937424
 20
-2.920751641093
 30
0.23292
 11
4.142447767458
 21
-2.933525051928
 31
0.23292
 12
4.13325703308
 22
-2.892139200823
 32
0.23292
 13
4.124066298701
 23
-2.918196958926
 33
0.23292
  0
SOLID
  5
16F
100
AcDbEntity
  8
BORDER
390
4D3
100
AcDbTrace
 10
4.184827264872
 20
-2.972356220865
 30
0.23292
 11
4.1531702909
 21
-2.969290602265
 31
0.23292
 12
4.16950937424
 22
-2.920751641093
 32
0.23292
 13
4.142447767458
 23
-2.933525051928
 33
0.23292
  0
SOLID
  5
170
100
AcDbEntity
  8
BORDER
390
4D3
100
AcDbTrace
 10
4.173594145075
 20
-3.026515482805
 30
0.23292
 11
4.152149098192
 21
-3.004034279736
 31
0.23292
 12
4.184827264872
 22
-2.972356220865
 32
0.23292
 13
4.1531702909
 23
-2.969290602265
 33
0.23292
  0
SOLID
  5
171
100
AcDbEntity
  8
BORDER
390
4D3
100
AcDbTrace
 10
4.148064327357
 20
-3.055127923075
 30
0.23292
 11
4.135299418497
 21
-3.03775608434
 31
0.23292
 12
4.173594145075
 22
-3.026515482805
 32
0.23292
 13
4.152149098192
 23
-3.004034279736
 33
0.23292
  0
SOLID
  5
172
100
AcDbEntity
  8
BORDER
390
4D3
100
AcDbTrace
 10
4.1005788664
 20
-3.071477888943
 30
0.23292
 11
4.1005788664
 21
-3.048485749441
 31
0.23292
 12
4.148064327357
 22
-3.055127923075
 32
0.23292
 13
4.135299418497
 23
-3.03775608434
 33
0.23292
  0
SOLID
  5
173
100
AcDbEntity
  8
BORDER
390
4D3
100
AcDbTrace
 10
4.067900699719
 20
-3.065346651743
 30
0.23292
 11
4.081176204933
 21
-3.046442003707
 31
0.23292
 12
4.1005788664
 22
-3.071477888943
 32
0.23292
 13
4.1005788664
 23
-3.048485749441
 33
0.23292
  0
SOLID
  5
174
100
AcDbEntity
  8
BORDER
390
4D3
100
AcDbTrace
 10
4.029605973141
 20
-3.032135783572
 30
0.23292
 11
4.055646387214
 21
-3.022427991338
 31
0.23292
 12
4.067900699719
 22
-3.065346651743
 32
0.23292
 13
4.081176204933
 23
-3.046442003707
 33
0.23292
  0
SOLID
  5
175
100
AcDbEntity
  8
BORDER
390
4D3
100
AcDbTrace
 10
4.016330467927
 20
-2.980020267366
 30
0.23292
 11
4.045945056481
 21
-2.982574949533
 31
0.23292
 12
4.029605973141
 22
-3.032135783572
 32
0.23292
 13
4.055646387214
 23
-3.022427991338
 33
0.23292
  0
SOLID
  5
176
100
AcDbEntity
  8
BORDER
390
4D3
100
AcDbTrace
 10
4.026884030394
 20
-2.929666088393
 30
0.23292
 11
4.053019136882
 21
-2.948126686219
 31
0.23292
 12
4.016330467927
 22
-2.980020267366
 32
0.23292
 13
4.045945056481
 23
-2.982574949533
 33
0.23292
  0
SOLID
  5
177
100
AcDbEntity
  8
BORDER
390
4D3
100
AcDbTrace
 10
4.051481777677
 20
-2.901975191653
 30
0.23292
 11
4.065318010523
 21
-2.922743364208
 31
0.23292
 12
4.026884030394
 22
-2.929666088393
 32
0.23292
 13
4.053019136882
 23
-2.948126686219
 33
0.23292
  0
SOLID
  5
178
100
AcDbEntity
  8
BORDER
390
4D3
100
AcDbTrace
 10
4.09990859264
 20
-2.88505297698
 30
0.23292
 11
4.099139913037
 21
-2.911205490567
 31
0.23292
 12
4.051481777677
 22
-2.901975191653
 32
0.23292
 13
4.065318010523
 23
-2.922743364208
 33
0.23292
  0
LWPOLYLINE
  5
179
100
AcDbEntity
  8
BORDER
390
4D3
100
AcDbPolyline
 90
        2
 70
           0
 43
0.00727875
 38
0.23292
 10
4.022016558036
 20
-2.945622365462
 42
0.143054065021
 10
4.021713203307
 20
-3.010560431685
 42
0.143054065021
  0
LWPOLYLINE
  5
17D
100
AcDbEntity
  8
BORDER
390
4D3
100
AcDbPolyline
 90
        2
 70
           0
 43
0.00727875
 38
0.23292
 10
4.021713203307
 20
-3.010560431685
 42
0.76163903364
 10
4.179929527058
 20
-3.008894436496
 42
0.76163903364
  0
LWPOLYLINE
  5
181
100
AcDbEntity
  8
BORDER
390
4D3
100
AcDbPolyline
 90
        2
 70
           0
 43
0.00727875
 38
0.23292
 10
4.179929527058
 20
-3.008894436496
 42
0.140694817201
 10
4.178574463452
 20
-2.944698025067
 42
0.140694817201
  0
LWPOLYLINE
  5
185
100
AcDbEntity
  8
BORDER
390
4D3
100
AcDbPolyline
 90
        2
 70
           0
 43
0.00727875
 38
0.23292
 10
4.178574463452
 20
-2.944698025067
 42
0.741471343119
 10
4.022016558036
 20
-2.945622365462
 42
0.741471343119
  0
LWPOLYLINE
  5
189
100
AcDbEntity
  8
BORDER
390
4D3
100
AcDbPolyline
 90
        4
 70
           1
 43
0.00727875
 38
0.23292
 10
4.055736087691
 20
-2.939092989382
 42
0.228526832398
 10
4.056586124416
 20
-3.021714425796
 42
0.623004310532
 10
4.144127026902
 20
-3.021438227666
 42
0.229006249556
 10
4.144380660321
 20
-2.938732539524
 42
0.632312199274
  0
SOLID
  5
18F
100
AcDbEntity
  8
BORDER
390
4D3
100
AcDbTrace
 10
4.297089783448
 20
-3.065653950936
 30
0.23292
 11
4.330843617519
 21
-3.062106165077
 31
0.23292
 12
4.295790241919
 22
-3.061423589718
 32
0.23292
 13
4.331546114178
 23
-3.058656124941
 33
0.23292
  0
SOLID
  5
190
100
AcDbEntity
  8
BORDER
390
4D3
100
AcDbTrace
 10
4.298808567783
 20
-3.070713846545
 30
0.23292
 11
4.336325383076
 21
-3.070713846545
 31
0.23292
 12
4.297089783448
 22
-3.065653950936
 32
0.23292
 13
4.330843617519
 23
-3.062106165077
 33
0.23292
  0
LWPOLYLINE
  5
191
100
AcDbEntity
  8
BORDER
390
4D3
100
AcDbPolyline
 90
        2
 70
           0
 43
0.00727875
 38
0.23292
 10
4.327924277598
 20
-3.059012986509
 42
0.095066976449
 10
4.330830988736
 20
-3.068833146012
 42
0.140491545427
  0
LWPOLYLINE
  5
195
100
AcDbEntity
  8
BORDER
390
4D3
100
AcDbPolyline
 90
        2
 70
           0
 43
0.00727875
 38
0.23292
 10
4.287420756328
 20
-2.892384471545
 10
4.186978345403
 20
-2.892384471545
  0
SOLID
  5
199
100
AcDbEntity
  8
BORDER
390
4D3
100
AcDbTrace
 10
4.289790651978
 20
-2.971201536498
 30
0.23292
 11
4.303697358807
 21
-2.977684978286
 31
0.23292
 12
4.270656106233
 22
-2.970558504331
 32
0.23292
 13
4.293324050932
 23
-2.983982713736
 33
0.23292
  0
SOLID
  5
19A
100
AcDbEntity
  8
BORDER
390
4D3
100
AcDbTrace
 10
4.286273468381
 20
-2.914475869691
 30
0.23292
 11
4.299082866619
 21
-2.893740983176
 31
0.23292
 12
4.270656106233
 22
-2.916486370808
 32
0.23292
 13
4.287420756328
 23
-2.888745096545
 33
0.23292
  0
SOLID
  5
19B
100
AcDbEntity
  8
BORDER
390
4D3
100
AcDbTrace
 10
4.298706119612
 20
-2.927670797474
 30
0.23292
 11
4.326962145139
 21
-2.912967877945
 31
0.23292
 12
4.286273468381
 22
-2.914475869691
 32
0.23292
 13
4.299082866619
 23
-2.893740983176
 33
0.23292
  0
SOLID
  5
19C
100
AcDbEntity
  8
BORDER
390
4D3
100
AcDbTrace
 10
4.302473589683
 20
-2.94275071494
 30
0.23292
 11
4.330729615209
 21
-2.951798665419
 31
0.23292
 12
4.298706119612
 22
-2.927670797474
 32
0.23292
 13
4.326962145139
 23
-2.912967877945
 33
0.23292
  0
SOLID
  5
19D
100
AcDbEntity
  8
BORDER
390
4D3
100
AcDbTrace
 10
4.289790651978
 20
-2.971201536498
 30
0.23292
 11
4.303697358807
 21
-2.977684978286
 31
0.23292
 12
4.302473589683
 22
-2.94275071494
 32
0.23292
 13
4.330729615209
 23
-2.951798665419
 33
0.23292
  0
SOLID
  5
19E
100
AcDbEntity
  8
BORDER
390
4D3
100
AcDbTrace
 10
4.275472262754
 20
-2.996624182487
 30
0.23292
 11
4.293324050932
 21
-2.983982713736
 31
0.23292
 12
4.259594624782
 22
-2.997989384714
 32
0.23292
 13
4.270656106233
 23
-2.970558504331
 33
0.23292
  0
SOLID
  5
19F
100
AcDbEntity
  8
BORDER
390
4D3
100
AcDbTrace
 10
4.285346456818
 20
-3.006451473553
 30
0.23292
 11
4.305027625386
 21
-2.992665479605
 31
0.23292
 12
4.275472262754
 22
-2.996624182487
 32
0.23292
 13
4.293324050932
 23
-2.983982713736
 33
0.23292
  0
SOLID
  5
1A0
100
AcDbEntity
  8
BORDER
390
4D3
100
AcDbTrace
 10
4.293710953459
 20
-3.017775682868
 30
0.23292
 11
4.323232706312
 21
-3.007436187407
 31
0.23292
 12
4.285346456818
 22
-3.006451473553
 32
0.23292
 13
4.305027625386
 23
-2.992665479605
 33
0.23292
  0
SOLID
  5
1A1
100
AcDbEntity
  8
BORDER
390
4D3
100
AcDbTrace
 10
4.292981447404
 20
-3.028638188578
 30
0.23292
 11
4.327557334237
 21
-3.018173454875
 31
0.23292
 12
4.293710953459
 22
-3.017775682868
 32
0.23292
 13
4.323232706312
 23
-3.007436187407
 33
0.23292
  0
SOLID
  5
1A2
100
AcDbEntity
  8
BORDER
390
4D3
100
AcDbTrace
 10
4.292981447404
 20
-3.028638188578
 30
0.23292
 11
4.295790241919
 21
-3.061423589718
 31
0.23292
 12
4.327557334237
 22
-3.018173454875
 32
0.23292
 13
4.331546114178
 23
-3.058656124941
 33
0.23292
  0
LWPOLYLINE
  5
1A3
100
AcDbEntity
  8
BORDER
390
4D3
100
AcDbPolyline
 90
        2
 70
           0
 43
0.00727875
 38
0.23292
 10
4.299416334014
 20
-3.061112934755
 42
0.114836022525
 10
4.301924832068
 20
-3.068833966948
 42
0.114836022525
  0
LWPOLYLINE
  5
1A7
100
AcDbEntity
  8
BORDER
390
4D3
100
AcDbPolyline
 90
        2
 70
           0
 43
0.00727875
 38
0.23292
 10
4.2966075395
 20
-3.028327533614
 42
0.389397748799
 10
4.259594624782
 20
-2.994350009714
 42
0.389397748799
  0
LWPOLYLINE
  5
1AB
100
AcDbEntity
  8
BORDER
390
4D3
100
AcDbPolyline
 90
        2
 70
           0
 43
0.00727875
 38
0.23292
 10
4.323935497657
 20
-3.018530316443
 42
0.358134556776
 10
4.292971693342
 20
-2.987604991269
 42
0.358134556776
  0
SOLID
  5
1AF
100
AcDbEntity
  8
BORDER
390
4D3
100
AcDbTrace
 10
4.224151814756
 20
-2.970558504331
 30
0.23292
 11
4.224151814756
 21
-2.997989384714
 31
0.23292
 12
4.270656106233
 22
-2.970558504331
 32
0.23292
 13
4.259594624782
 23
-2.997989384714
 33
0.23292
  0
SOLID
  5
1B0
100
AcDbEntity
  8
BORDER
390
4D3
100
AcDbTrace
 10
4.224151814756
 20
-2.916486370808
 30
0.23292
 11
4.224151814756
 21
-2.892709774874
 31
0.23292
 12
4.270656106233
 22
-2.916486370808
 32
0.23292
 13
4.287420756328
 23
-2.888745096545
 33
0.23292
  0
LWPOLYLINE
  5
1B1
100
AcDbEntity
  8
BORDER
390
4D3
100
AcDbPolyline
 90
        2
 70
           0
 43
0.00727875
 38
0.23292
 10
4.270656106233
 20
-2.974197879331
 42
1.0
 10
4.270656106233
 20
-2.912846995808
 42
1.0
  0
LWPOLYLINE
  5
1B5
100
AcDbEntity
  8
BORDER
390
4D3
100
AcDbPolyline
 90
        2
 70
           0
 43
0.00727875
 38
0.23292
 10
4.292874605137
 20
-2.980371197591
 42
0.939934318016
 10
4.287420756328
 20
-2.892384471545
 42
0.939934318016
  0
SOLID
  5
1B9
100
AcDbEntity
  8
BORDER
390
4D3
100
AcDbTrace
 10
4.186978345403
 20
-3.070713846545
 30
0.23292
 11
4.186978345403
 21
-2.888745096545
 31
0.23292
 12
4.224151814756
 22
-3.070713846545
 32
0.23292
 13
4.224151814756
 23
-2.892709774874
 33
0.23292
  0
SOLID
  5
1BA
100
AcDbEntity
  8
BORDER
390
4D3
100
AcDbTrace
 10
4.997653051975
 20
-2.900299501353
 30
0.23292
 11
4.999473356726
 21
-2.884580201387
 31
0.23292
 12
4.995301222309
 22
-2.900874970956
 32
0.23292
 13
4.995301222309
 23
-2.883561246108
 33
0.23292
  0
SOLID
  5
1BB
100
AcDbEntity
  8
BORDER
390
4D3
100
AcDbTrace
 10
4.961359480353
 20
-2.900590324655
 30
0.23292
 11
4.960246164299
 21
-2.885772848106
 31
0.23292
 12
4.963709135041
 22
-2.90166373086
 32
0.23292
 13
4.963709135041
 23
-2.88491781702
 33
0.23292
  0
SOLID
  5
1BC
100
AcDbEntity
  8
BORDER
390
4D3
100
AcDbTrace
 10
4.957746263706
 20
-2.901515784794
 30
0.23292
 11
4.949118064292
 21
-2.892109468623
 31
0.23292
 12
4.961359480353
 22
-2.900590324655
 32
0.23292
 13
4.960246164299
 23
-2.885772848106
 33
0.23292
  0
LWPOLYLINE
  5
1BD
100
AcDbEntity
  8
BORDER
390
4D3
100
AcDbPolyline
 90
        2
 70
           0
 43
0.003423924
 38
0.23292
 10
4.963392897585
 20
-2.886687956102
 42
0.28412093169
 10
4.938664965576
 20
-2.907373097155
 42
0.288844763467
  0
LWPOLYLINE
  5
1C1
100
AcDbEntity
  8
BORDER
390
4D3
100
AcDbPolyline
 90
        2
 70
           0
 43
0.003423924
 38
0.23292
 10
5.019785769095
 20
-2.903113934048
 42
0.261966093676
 10
4.995537691726
 20
-2.885311427549
 42
0.265646577079
  0
SOLID
  5
1C5
100
AcDbEntity
  8
BORDER
390
4D3
100
AcDbTrace
 10
5.008402144141
 20
-2.906631101357
 30
0.23292
 11
5.018974851254
 21
-2.899529585506
 31
0.23292
 12
4.997653051975
 22
-2.900299501353
 32
0.23292
 13
4.999473356726
 23
-2.884580201387
 33
0.23292
  0
SOLID
  5
1C6
100
AcDbEntity
  8
BORDER
390
4D3
100
AcDbTrace
 10
5.012908543894
 20
-2.921526963873
 30
0.23292
 11
5.024001220209
 21
-2.927069610391
 31
0.23292
 12
5.008402144141
 22
-2.906631101357
 32
0.23292
 13
5.018974851254
 23
-2.899529585506
 33
0.23292
  0
SOLID
  5
1C7
100
AcDbEntity
  8
BORDER
390
4D3
100
AcDbTrace
 10
5.005455651995
 20
-2.93832811113
 30
0.23292
 11
5.01186860549
 21
-2.948893781055
 31
0.23292
 12
5.012908543894
 22
-2.921526963873
 32
0.23292
 13
5.024001220209
 23
-2.927069610391
 33
0.23292
  0
SOLID
  5
1C8
100
AcDbEntity
  8
BORDER
390
4D3
100
AcDbTrace
 10
4.982689603833
 20
-2.94556869886
 30
0.23292
 11
4.983630861951
 21
-2.960148488925
 31
0.23292
 12
5.005455651995
 22
-2.93832811113
 32
0.23292
 13
5.01186860549
 23
-2.948893781055
 33
0.23292
  0
SOLID
  5
1C9
100
AcDbEntity
  8
BORDER
390
4D3
100
AcDbTrace
 10
4.965119452297
 20
-2.944157751435
 30
0.23292
 11
4.956334376529
 21
-2.954661471159
 31
0.23292
 12
4.982689603833
 22
-2.94556869886
 32
0.23292
 13
4.983630861951
 23
-2.960148488925
 33
0.23292
  0
SOLID
  5
1CA
100
AcDbEntity
  8
BORDER
390
4D3
100
AcDbTrace
 10
4.948804311586
 20
-2.931145680732
 30
0.23292
 11
4.938450472288
 21
-2.935378523009
 31
0.23292
 12
4.965119452297
 22
-2.944157751435
 32
0.23292
 13
4.956334376529
 23
-2.954661471159
 33
0.23292
  0
SOLID
  5
1CB
100
AcDbEntity
  8
BORDER
390
4D3
100
AcDbTrace
 10
4.947078671703
 20
-2.912960136135
 30
0.23292
 11
4.937195461464
 21
-2.908884065794
 31
0.23292
 12
4.948804311586
 22
-2.931145680732
 32
0.23292
 13
4.938450472288
 23
-2.935378523009
 33
0.23292
  0
SOLID
  5
1CC
100
AcDbEntity
  8
BORDER
390
4D3
100
AcDbTrace
 10
4.957746263706
 20
-2.901515784794
 30
0.23292
 11
4.949118064292
 21
-2.892109468623
 31
0.23292
 12
4.947078671703
 22
-2.912960136135
 32
0.23292
 13
4.937195461464
 23
-2.908884065794
 33
0.23292
  0
LWPOLYLINE
  5
1CD
100
AcDbEntity
  8
BORDER
390
4D3
100
AcDbPolyline
 90
        2
 70
           0
 43
0.003423924
 38
0.23292
 10
5.022768498978
 20
-2.92723848587
 42
0.152190792067
 10
5.019785769095
 20
-2.903113934048
 42
0.152190792067
  0
LWPOLYLINE
  5
1D1
100
AcDbEntity
  8
BORDER
390
4D3
100
AcDbPolyline
 90
        2
 70
           0
 43
0.003423924
 38
0.23292
 10
5.010148055819
 20
-2.948616138145
 42
0.179000650425
 10
5.022768498978
 20
-2.92723848587
 42
0.179000650425
  0
LWPOLYLINE
  5
1D5
100
AcDbEntity
  8
BORDER
390
4D3
100
AcDbPolyline
 90
        2
 70
           0
 43
0.003423924
 38
0.23292
 10
4.961534598938
 20
-2.956191841336
 42
0.270661132293
 10
5.010148055819
 20
-2.948616138145
 42
0.270661132293
  0
LWPOLYLINE
  5
1D9
100
AcDbEntity
  8
BORDER
390
4D3
100
AcDbPolyline
 90
        2
 70
           0
 43
0.003423924
 38
0.23292
 10
4.938664965576
 20
-2.907373097155
 42
0.398620806069
 10
4.961534598938
 20
-2.956191841336
 42
0.398620806069
  0
LWPOLYLINE
  5
1DD
100
AcDbEntity
  8
BORDER
390
4D3
100
AcDbPolyline
 90
        6
 70
           0
 43
0.003423924
 38
0.23292
 10
4.96344327855
 20
-2.899972537726
 42
0.342627443964
 10
4.946934668724
 20
-2.917527569088
 42
0.294280948996
 10
4.958698509338
 20
-2.940240179601
 42
0.273537537364
 10
5.001513159319
 20
-2.939661370427
 42
0.208169861593
 10
5.012395078516
 20
-2.924183825155
 42
0.418984908217
 10
4.995617895727
 20
-2.899192552508
 42
0.418984908217
  0
SOLID
  5
1E5
100
AcDbEntity
  8
BORDER
390
4D3
100
AcDbTrace
 10
4.937343242081
 20
-3.023977101996
 30
0.23292
 11
5.022939477051
 21
-2.970083176274
 31
0.23292
 12
4.937349620796
 22
-3.041130574218
 32
0.23292
 13
5.022941342081
 23
-2.988025899996
 33
0.23292
  0
SOLID
  5
1E6
100
AcDbEntity
  8
BORDER
390
4D3
100
AcDbTrace
 10
4.937343242081
 20
-2.969622308496
 30
0.23292
 11
5.022941342081
 21
-2.969622308496
 31
0.23292
 12
4.937343242081
 22
-2.987597909496
 32
0.23292
 13
5.022941342081
 23
-2.987597909496
 33
0.23292
  0
SOLID
  5
1E7
100
AcDbEntity
  8
BORDER
390
4D3
100
AcDbTrace
 10
5.022941342081
 20
-3.042380693496
 30
0.23292
 11
4.937343242081
 21
-3.042380693496
 31
0.23292
 12
5.022941342081
 22
-3.024405092496
 32
0.23292
 13
4.937343242081
 23
-3.024405092496
 33
0.23292
  0
SOLID
  5
1E8
100
AcDbEntity
  8
BORDER
390
4D3
100
AcDbTrace
 10
4.93734324745
 20
-3.075335961179
 30
0.23292
 11
4.93734324745
 21
-3.057360360179
 31
0.23292
 12
5.02294134745
 22
-3.075335961179
 32
0.23292
 13
5.02294134745
 23
-3.057360360179
 33
0.23292
  0
LINE
  5
1E9
100
AcDbEntity
  8
BORDER
390
4D3
100
AcDbLine
 10
4.699648380741
 20
-2.916040409045
 30
0.23292
 11
4.653634927581
 21
-2.916040409045
 31
0.23292
  0
LINE
  5
1EA
100
AcDbEntity
  8
BORDER
390
4D3
100
AcDbLine
 10
4.653634927581
 20
-2.916040409045
 30
0.23292
 11
4.653634927581
 21
-2.961532596545
 31
0.23292
  0
LINE
  5
1EB
100
AcDbEntity
  8
BORDER
390
4D3
100
AcDbLine
 10
4.653634927581
 20
-2.961532596545
 30
0.23292
 11
4.699648382659
 21
-2.961532596545
 31
0.23292
  0
ARC
  5
1EC
100
AcDbEntity
  8
BORDER
390
4D3
100
AcDbCircle
 10
4.699648382659
 20
-2.938786502795
 30
0.23292
 40
0.02274609375
100
AcDbArc
 50
270.0
 51
90.000004829675
  0
LINE
  5
1ED
100
AcDbEntity
  8
BORDER
390
4D3
100
AcDbLine
 10
4.653634927581
 20
-2.989737752795
 30
0.23292
 11
4.653634927581
 21
-3.042508690295
 31
0.23292
  0
LINE
  5
1EE
100
AcDbEntity
  8
BORDER
390
4D3
100
AcDbLine
 10
4.653634927581
 20
-3.042508690295
 30
0.23292
 11
4.697307427581
 21
-3.042508690295
 31
0.23292
  0
ARC
  5
1EF
100
AcDbEntity
  8
BORDER
390
4D3
100
AcDbCircle
 10
4.697307427581
 20
-3.010201939469
 30
0.23292
 40
0.032306750825
100
AcDbArc
 50
270.0
 51
313.227508124747
  0
ARC
  5
1F0
100
AcDbEntity
  8
BORDER
390
4D3
100
AcDbCircle
 10
4.701999519231
 20
-3.015193704771
 30
0.23292
 40
0.025455951976
100
AcDbArc
 50
313.227508124748
 51
90.0
  0
LINE
  5
1F1
100
AcDbEntity
  8
BORDER
390
4D3
100
AcDbLine
 10
4.701999519231
 20
-2.989737752795
 30
0.23292
 11
4.653634927581
 21
-2.989737752795
 31
0.23292
  0
LINE
  5
1F2
100
AcDbEntity
  8
BORDER
390
4D3
100
AcDbLine
 10
4.536739572239
 20
-2.91861206218
 30
0.23292
 11
4.510343739586
 21
-3.004295252795
 31
0.23292
  0
LINE
  5
1F3
100
AcDbEntity
  8
BORDER
390
4D3
100
AcDbLine
 10
4.510343739586
 20
-3.004295252795
 30
0.23292
 11
4.563135404891
 21
-3.004295252795
 31
0.23292
  0
LINE
  5
1F4
100
AcDbEntity
  8
BORDER
390
4D3
100
AcDbLine
 10
4.563135404891
 20
-3.004295252795
 30
0.23292
 11
4.536739572239
 21
-2.91861206218
 31
0.23292
  0
TEXT
  5
1F5
100
AcDbEntity
  8
BORDER
390
4D3
100
AcDbText
 10
5.125395394672
 20
-3.075566346545
 30
0.23292
 40
0.0727875
  1
NEWTON NJ
100
AcDbText
  0
TEXT
  5
1F6
100
AcDbEntity
  8
BORDER
390
4D3
100
AcDbText
 10
5.125395394672
 20
-2.954253846545
 30
0.23292
 40
0.0727875
  1
PO BOX 366
100
AcDbText
  0
LINE
  5
1F7
100
AcDbEntity
  8
BORDER
390
4D3
100
AcDbLine
 10
3.644915528307
 20
-3.408554923272
 30
0.11646
 11
5.909415528307
 21
-3.408554923272
 31
0.11646
  0
LINE
  5
1F8
100
AcDbEntity
  8
BORDER
390
4D3
100
AcDbLine
 10
3.644915528307
 20
-3.602654923272
 30
0.11646
 11
5.023113049599
 21
-3.602654923272
 31
0.11646
  0
LINE
  5
1F9
100
AcDbEntity
  8
BORDER
390
4D3
100
AcDbLine
 10
3.644915528307
 20
-3.796754923272
 30
0.11646
 11
5.023113049599
 21
-3.796754923272
 31
0.11646
  0
LINE
  5
1FA
100
AcDbEntity
  8
BORDER
390
4D3
100
AcDbLine
 10
3.644915528307
 20
-3.990854923272
 30
0.11646
 11
5.023113049599
 21
-3.990854923272
 31
0.11646
  0
LINE
  5
1FB
100
AcDbEntity
  8
BORDER
390
4D3
100
AcDbLine
 39
0.11646
 10
4.600058265355
 20
-3.796754923272
 30
0.11646
 11
4.600058265355
 21
-3.602654923272
 31
0.11646
  0
LINE
  5
1FC
100
AcDbEntity
  8
BORDER
390
4D3
100
AcDbLine
 39
0.11646
 10
4.196451786493
 20
-4.220230418021
 30
0.0
 11
4.196451786493
 21
-3.604825170647
 31
0.0
  0
TEXT
  5
1FD
100
AcDbEntity
  8
BORDER
390
4D3
100
AcDbText
 10
4.211345415892
 20
-3.670589923272
 30
0.11646
 40
0.04
  1
ENGR.
100
AcDbText
  0
TEXT
  5
1FE
100
AcDbEntity
  8
BORDER
390
4D3
100
AcDbText
 10
4.621912874348
 20
-3.670589923272
 30
0.11646
 40
0.04
  1
APPROVED
100
AcDbText
  0
LINE
  5
1FF
100
AcDbEntity
  8
BORDER
390
4D3
100
AcDbLine
 39
0.11646
 10
4.600058265355
 20
-3.990854923272
 30
0.11646
 11
4.600058265355
 21
-3.796754923272
 31
0.11646
  0
TEXT
  5
200
100
AcDbEntity
  8
BORDER
390
4D3
100
AcDbText
 10
5.052140528307
 20
-3.479724923272
 30
0.11646
 40
0.04529
  1
WHERE USED
100
AcDbText
  0
TRACE
  5
201
100
AcDbEntity
  8
BORDER
390
4D3
100
AcDbTrace
 10
5.016555528307
 20
-4.184954923272
 30
0.11646
 11
5.029495528307
 21
-4.184954923272
 31
0.11646
 12
5.016555528307
 22
-3.402084923272
 32
0.11646
 13
5.029495528307
 23
-3.415024923272
 33
0.11646
 39
0.11646
  0
TRACE
  5
202
100
AcDbEntity
  8
BORDER
390
4D3
100
AcDbTrace
 10
5.016555528307
 20
-3.402084923272
 30
0.11646
 11
5.029495528307
 21
-3.415024923272
 31
0.11646
 12
5.909415528307
 22
-3.402084923272
 32
0.11646
 13
5.909415528307
 23
-3.415024923272
 33
0.11646
 39
0.11646
  0
TRACE
  5
203
100
AcDbEntity
  8
BORDER
390
4D3
100
AcDbTrace
 10
5.023025528307
 20
-3.415024923272
 30
0.11646
 11
5.023025528307
 21
-3.402084923272
 31
0.11646
 12
3.644915528307
 22
-3.415024923272
 32
0.11646
 13
3.644915528307
 23
-3.402084923272
 33
0.11646
 39
0.11646
  0
TRACE
  5
204
100
AcDbEntity
  8
BORDER
390
4D3
100
AcDbTrace
 10
5.909415528307
 20
-3.104464923272
 30
0.11646
 11
5.909415528307
 21
-3.091524923272
 31
0.11646
 12
3.648150528307
 22
-3.104464923272
 32
0.11646
 13
3.648150528307
 23
-3.091524923272
 33
0.11646
 39
0.11646
  0
LINE
  5
205
100
AcDbEntity
  8
BORDER
390
4D3
100
AcDbLine
 39
0.11646
 10
3.644915528307
 20
-3.292094923272
 30
0.11646
 11
5.909415528307
 21
-3.292094923272
 31
0.11646
  0
TRACE
  5
206
100
AcDbEntity
  8
BORDER
390
4D3
100
AcDbTrace
 10
3.648150528307
 20
-3.285624923272
 30
0.11646
 11
3.648150528307
 21
-3.298564923272
 31
0.11646
 12
5.909415528307
 22
-3.285624923272
 32
0.11646
 13
5.909415528307
 23
-3.298564923272
 33
0.11646
 39
0.11646
  0
TEXT
  5
207
100
AcDbEntity
  8
BORDER
390
4D3
100
AcDbText
 10
3.703145528307
 20
-3.376204923272
 30
0.11646
 40
0.04529
  1
TOL: X.XXX=+/-0.005 X.XX=+/-0.010 ANGULAR +/-30'
100
AcDbText
  0
TRACE
  5
208
100
AcDbEntity
  8
BORDER
390
4D3
100
AcDbTrace
 10
-4.035
 20
-4.18765
 30
0.0
 11
-4.035
 21
-4.22
 31
0.0
 12
5.9288
 22
-4.18765
 32
0.0
 13
5.9288
 23
-4.22
 33
0.0
  0
TRACE
  5
209
100
AcDbEntity
  8
BORDER
390
4D3
100
AcDbTrace
 10
5.944975
 20
3.22196
 30
0.0
 11
5.912625
 21
3.18961
 31
0.0
 12
5.944975
 22
-4.203825
 32
0.0
 13
5.912625
 23
-4.203825
 33
0.0
  0
TRACE
  5
20A
100
AcDbEntity
  8
BORDER
390
4D3
100
AcDbTrace
 10
-4.051175
 20
3.22196
 30
0.0
 11
-4.018825
 21
3.18961
 31
0.0
 12
5.944975
 22
3.22196
 32
0.0
 13
5.912625
 23
3.18961
 33
0.0
  0
TRACE
  5
20B
100
AcDbEntity
  8
BORDER
390
4D3
100
AcDbTrace
 10
-4.051175
 20
-4.203825
 30
0.0
 11
-4.018825
 21
-4.203825
 31
0.0
 12
-4.051175
 22
3.22196
 32
0.0
 13
-4.018825
 23
3.18961
 33
0.0
  0
ENDBLK
  5
20C
100
AcDbEntity
  8
0
390
4D3
100
AcDbBlockEnd
  0
BLOCK
  5
359
100
AcDbEntity
  8
0
390
4D3
100
AcDbBlockBegin
  2
EB
 70
          64
 10
0.0
 20
0.0
 30
0.0
  3
EB
  1

  0
TRACE
  5
212
100
AcDbEntity
  8
BORDER
390
4D3
100
AcDbTrace
 10
-2.8553
 20
-4.489125
 30
0.0
 11
-2.8553
 21
-4.521475
 31
0.0
 12
7.1085
 22
-4.489125
 32
0.0
 13
7.1085
 23
-4.521475
 33
0.0
  0
TRACE
  5
213
100
AcDbEntity
  8
BORDER
390
4D3
100
AcDbTrace
 10
-2.871475
 20
2.920485
 30
0.0
 11
-2.839125
 21
2.888135
 31
0.0
 12
7.124675
 22
2.920485
 32
0.0
 13
7.092325
 23
2.888135
 33
0.0
  0
SOLID
  5
214
100
AcDbEntity
  8
DIM
390
4D3
100
AcDbTrace
 10
2.365
 20
-0.925
 30
0.0
 11
2.365
 21
-0.865
 31
0.0
 12
2.545
 22
-0.895
 32
0.0
 13
2.545
 23
-0.895
 33
0.0
  0
SOLID
  5
215
100
AcDbEntity
  8
DIM
390
4D3
100
AcDbTrace
 10
2.495
 20
1.16
 30
0.0
 11
2.495
 21
1.22
 31
0.0
 12
2.675
 22
1.19
 32
0.0
 13
2.675
 23
1.19
 33
0.0
  0
TRACE
  5
216
100
AcDbEntity
  8
BORDER
390
4D3
100
AcDbTrace
 10
-2.871475
 20
-4.5053
 30
0.0
 11
-2.839125
 21
-4.5053
 31
0.0
 12
-2.871475
 22
2.920485
 32
0.0
 13
-2.839125
 23
2.888135
 33
0.0
  0
LINE
  5
217
100
AcDbEntity
  8
DIM
390
4D3
100
AcDbLine
 10
-0.639567424647
 20
-0.261013172453
 30
0.0
 11
-1.01
 21
-1.145
 31
0.0
  0
TEXT
  5
218
100
AcDbEntity
  8
DIM
390
4D3
100
AcDbText
 10
-2.616666666667
 20
-1.195
 30
0.0
 40
0.1
  1
1/4-80 THREAD
100
AcDbText
  0
LINE
  5
219
100
AcDbEntity
  8
DIM
390
4D3
100
AcDbLine
 10
-1.01
 20
-1.145
 30
0.0
 11
-1.22
 21
-1.145
 31
0.0
  0
LINE
  5
21A
100
AcDbEntity
  8
DIM
390
4D3
100
AcDbLine
 10
2.365
 20
-0.895
 30
0.0
 11
2.185
 21
-0.895
 31
0.0
  0
SOLID
  5
21B
100
AcDbEntity
  8
DIM
390
4D3
100
AcDbTrace
 10
-0.93
 20
0.97
 30
0.0
 11
-0.93
 21
1.03
 31
0.0
 12
-0.75
 22
1.0
 32
0.0
 13
-0.75
 23
1.0
 33
0.0
  0
LINE
  5
21C
100
AcDbEntity
  8
DIM
390
4D3
100
AcDbLine
 10
-0.93
 20
1.0
 30
0.0
 11
-1.11
 21
1.0
 31
0.0
  0
LINE
  5
21D
100
AcDbEntity
  8
DIM
390
4D3
100
AcDbLine
 10
-0.255
 20
0.2025
 30
0.0
 11
-0.255
 21
1.09
 31
0.0
  0
LINE
  5
21E
100
AcDbEntity
  8
DIM
390
4D3
100
AcDbLine
 10
-0.75
 20
0.2025
 30
0.0
 11
-0.75
 21
1.09
 31
0.0
  0
LINE
  5
21F
100
AcDbEntity
  8
0
390
4D3
100
AcDbLine
 10
-0.250265897262
 20
0.144491083153
 30
0.0
 11
-0.499962967186
 21
0.288653753689
 31
0.0
  0
LINE
  5
220
100
AcDbEntity
  8
0
390
4D3
100
AcDbLine
 10
-0.749845016787
 20
0.144427046897
 30
0.0
 11
-0.498748108578
 21
0.289397914444
 31
0.0
  0
CIRCLE
  5
221
100
AcDbEntity
  8
0
390
4D3
100
AcDbCircle
 10
-0.5
 20
0.0
 30
0.0
 40
0.25
  0
LINE
  5
222
100
AcDbEntity
  8
DIM
390
4D3
100
AcDbLine
 10
-0.59
 20
0.0
 30
0.0
 11
-0.41
 21
0.0
 31
0.0
  0
CIRCLE
  5
223
100
AcDbEntity
  8
0
390
4D3
100
AcDbCircle
 10
-0.5
 20
0.0
 30
0.0
 40
0.105
  0
CIRCLE
  5
224
100
AcDbEntity
  8
HIDDEN
390
4D3
100
AcDbCircle
 10
-0.5
 20
0.0
 30
0.0
 40
0.125
  0
CIRCLE
  5
225
100
AcDbEntity
  8
HIDDEN
390
4D3
100
AcDbCircle
 10
-0.5
 20
0.0
 30
0.0
 40
0.1875
  0
LINE
  5
226
100
AcDbEntity
  8
0
390
4D3
100
AcDbLine
 10
-0.500462597226
 20
-0.288942215228
 30
0.0
 11
-0.250265897262
 21
-0.144491083153
 31
0.0
  0
LINE
  5
227
100
AcDbEntity
  8
DIM
390
4D3
100
AcDbLine
 10
-0.5
 20
-0.09
 30
0.0
 11
-0.5
 21
0.09
 31
0.0
  0
LINE
  5
228
100
AcDbEntity
  8
0
390
4D3
100
AcDbLine
 10
-0.75
 20
-0.144230769231
 30
0.0
 11
-0.75
 21
0.145
 31
0.0
  0
LINE
  5
229
100
AcDbEntity
  8
0
390
4D3
100
AcDbLine
 10
-0.499648316823
 20
-0.288878178972
 30
0.0
 11
-0.749845016787
 21
-0.144427046897
 31
0.0
  0
SOLID
  5
22A
100
AcDbEntity
  8
DIM
390
4D3
100
AcDbTrace
 10
-0.667236286723
 20
-0.249418601679
 30
0.0
 11
-0.611898562572
 21
-0.272607743228
 31
0.0
 12
-0.57
 22
-0.095
 32
0.0
 13
-0.57
 23
-0.095
 33
0.0
  0
LINE
  5
22B
100
AcDbEntity
  8
0
390
4D3
100
AcDbLine
 10
-0.25
 20
-0.144230769231
 30
0.0
 11
-0.25
 21
0.144230769231
 31
0.0
  0
LINE
  5
22C
100
AcDbEntity
  8
DIM
390
4D3
100
AcDbLine
 10
-0.075
 20
1.0
 30
0.0
 11
0.105
 21
1.0
 31
0.0
  0
SOLID
  5
22D
100
AcDbEntity
  8
DIM
390
4D3
100
AcDbTrace
 10
-0.075
 20
0.97
 30
0.0
 11
-0.075
 21
1.03
 31
0.0
 12
-0.255
 22
1.0
 32
0.0
 13
-0.255
 23
1.0
 33
0.0
  0
TEXT
  5
22E
100
AcDbEntity
  8
DIM
390
4D3
100
AcDbText
 10
0.285
 20
0.95
 30
0.0
 40
0.1
  1
0.50
100
AcDbText
  0
LINE
  5
22F
100
AcDbEntity
  8
DIM
390
4D3
100
AcDbLine
 10
2.495
 20
1.19
 30
0.0
 11
2.315
 21
1.19
 31
0.0
  0
TRACE
  5
230
100
AcDbEntity
  8
BORDER
390
4D3
100
AcDbTrace
 10
7.124675
 20
2.920485
 30
0.0
 11
7.092325
 21
2.888135
 31
0.0
 12
7.124675
 22
-4.5053
 32
0.0
 13
7.092325
 23
-4.5053
 33
0.0
  0
LINE
  5
231
100
AcDbEntity
  8
DIM
390
4D3
100
AcDbLine
 10
3.3
 20
-0.2325
 30
0.0
 11
3.3
 21
-0.985
 31
0.0
  0
LINE
  5
232
100
AcDbEntity
  8
DIM
390
4D3
100
AcDbLine
 10
2.545
 20
-0.3525
 30
0.0
 11
2.545
 21
-0.985
 31
0.0
  0
LINE
  5
233
100
AcDbEntity
  8
DIM
390
4D3
100
AcDbLine
 10
3.305774990277
 20
-0.302171306993
 30
0.0
 11
4.42
 21
-1.19
 31
0.0
  0
LINE
  5
234
100
AcDbEntity
  8
BORDER
390
4D3
100
AcDbLine
 39
0.18
 10
5.560474047368
 20
-4.098229923272
 30
0.0
 11
5.560474047368
 21
-4.292329923272
 31
0.0
  0
LINE
  5
235
100
AcDbEntity
  8
BORDER
390
4D3
100
AcDbLine
 39
0.11646
 10
5.779758265355
 20
-4.098229923272
 30
0.11646
 11
5.779758265355
 21
-3.904129923272
 31
0.11646
  0
LINE
  5
236
100
AcDbEntity
  8
BORDER
390
4D3
100
AcDbLine
 39
0.11646
 10
5.779758265355
 20
-4.292329923272
 30
0.11646
 11
5.779758265355
 21
-4.098229923272
 31
0.11646
  0
TRACE
  5
237
100
AcDbEntity
  8
BORDER
390
4D3
100
AcDbTrace
 10
6.196255528307
 20
-4.486429923272
 30
0.11646
 11
6.209195528307
 21
-4.486429923272
 31
0.11646
 12
6.196255528307
 22
-3.703559923272
 32
0.11646
 13
6.209195528307
 23
-3.716499923272
 33
0.11646
 39
0.11646
  0
TRACE
  5
238
100
AcDbEntity
  8
BORDER
390
4D3
100
AcDbTrace
 10
6.196255528307
 20
-3.703559923272
 30
0.11646
 11
6.209195528307
 21
-3.716499923272
 31
0.11646
 12
7.089115528307
 22
-3.703559923272
 32
0.11646
 13
7.089115528307
 23
-3.716499923272
 33
0.11646
 39
0.11646
  0
TRACE
  5
239
100
AcDbEntity
  8
BORDER
390
4D3
100
AcDbTrace
 10
6.202725528307
 20
-3.716499923272
 30
0.11646
 11
6.202725528307
 21
-3.703559923272
 31
0.11646
 12
4.824615528307
 22
-3.716499923272
 32
0.11646
 13
4.824615528307
 23
-3.703559923272
 33
0.11646
 39
0.11646
  0
TRACE
  5
23A
100
AcDbEntity
  8
BORDER
390
4D3
100
AcDbTrace
 10
7.089115528307
 20
-3.405939923272
 30
0.11646
 11
7.089115528307
 21
-3.392999923272
 31
0.11646
 12
4.827850528307
 22
-3.405939923272
 32
0.11646
 13
4.827850528307
 23
-3.392999923272
 33
0.11646
 39
0.11646
  0
LINE
  5
23B
100
AcDbEntity
  8
BORDER
390
4D3
100
AcDbLine
 39
0.11646
 10
4.824615528307
 20
-3.593569923272
 30
0.11646
 11
7.089115528307
 21
-3.593569923272
 31
0.11646
  0
TRACE
  5
23C
100
AcDbEntity
  8
BORDER
390
4D3
100
AcDbTrace
 10
4.827850528307
 20
-3.587099923272
 30
0.11646
 11
4.827850528307
 21
-3.600039923272
 31
0.11646
 12
7.089115528307
 22
-3.587099923272
 32
0.11646
 13
7.089115528307
 23
-3.600039923272
 33
0.11646
 39
0.11646
  0
TEXT
  5
23D
100
AcDbEntity
  8
DIM1
390
4D3
100
AcDbText
 10
5.01605755132
 20
-3.877904052747
 30
0.0
 40
0.06
  1
360 HALF HARD BRASS
100
AcDbText
  0
TEXT
  5
23E
100
AcDbEntity
  8
DIM1
390
4D3
100
AcDbText
 10
5.12605755132
 20
-3.547904052747
 30
0.0
 40
0.08
  1
BUSHING 1/4-80 X 0.625
100
AcDbText
  0
LINE
  5
23F
100
AcDbEntity
  8
BORDER
390
4D3
100
AcDbLine
 10
4.824615528307
 20
-3.399469923272
 30
0.11646
 11
7.089115528307
 21
-3.399469923272
 31
0.11646
  0
TEXT
  5
240
100
AcDbEntity
  8
BORDER
390
4D3
100
AcDbText
 10
5.806043587935
 20
-4.165999839817
 30
0.11646
 40
0.04
  1
SHEET
100
AcDbText
  0
TRACE
  5
241
100
AcDbEntity
  8
BORDER
390
4D3
100
AcDbTrace
 10
7.089115528307
 20
-3.156844923272
 30
0.11646
 11
7.089115528307
 21
-3.124494923272
 31
0.11646
 12
4.840790528307
 22
-3.156844923272
 32
0.11646
 13
4.808440528307
 23
-3.124494923272
 33
0.11646
  0
TEXT
  5
242
100
AcDbEntity
  8
BORDER
390
4D3
100
AcDbText
 10
5.952083377769
 20
-4.263214923272
 30
0.11646
 40
0.04529
  1
OF
100
AcDbText
  0
LINE
  5
243
100
AcDbEntity
  8
BORDER
390
4D3
100
AcDbLine
 10
4.824615528307
 20
-3.710029923272
 30
0.11646
 11
7.089115528307
 21
-3.710029923272
 31
0.11646
  0
LINE
  5
244
100
AcDbEntity
  8
BORDER
390
4D3
100
AcDbLine
 10
4.824615528307
 20
-3.904129923272
 30
0.11646
 11
6.202813049599
 21
-3.904129923272
 31
0.11646
  0
LINE
  5
245
100
AcDbEntity
  8
BORDER
390
4D3
100
AcDbLine
 10
4.824615528307
 20
-4.098229923272
 30
0.11646
 11
6.202813049599
 21
-4.098229923272
 31
0.11646
  0
LINE
  5
246
100
AcDbEntity
  8
BORDER
390
4D3
100
AcDbLine
 10
4.824615528307
 20
-4.292329923272
 30
0.11646
 11
6.202813049599
 21
-4.292329923272
 31
0.11646
  0
TEXT
  5
247
100
AcDbEntity
  8
BORDER
390
4D3
100
AcDbText
 10
5.801612874348
 20
-3.972064923272
 30
0.11646
 40
0.04
  1
APPROVED
100
AcDbText
  0
TEXT
  5
248
100
AcDbEntity
  8
BORDER
390
4D3
100
AcDbText
 10
4.882845528307
 20
-3.677679923272
 30
0.11646
 40
0.04529
  1
TOL: X.XXX=+/-0.005 X.XX=+/-0.010 ANGULAR +/-30'
100
AcDbText
  0
TEXT
  5
249
100
AcDbEntity
  8
DIM
390
4D3
100
AcDbText
 10
4.81
 20
-1.24
 30
0.0
 40
0.1
  1
3/8-40 THREAD
100
AcDbText
  0
LINE
  5
24A
100
AcDbEntity
  8
BORDER
390
4D3
100
AcDbLine
 39
0.11646
 10
5.376151786493
 20
-4.521705418021
 30
0.0
 11
5.376151786493
 21
-3.906300170647
 31
0.0
  0
TEXT
  5
24B
100
AcDbEntity
  8
DIM1
390
4D3
100
AcDbText
 10
4.89605755132
 20
-4.457904052747
 30
0.0
 40
0.06
  1
0241-E01
100
AcDbText
  0
TEXT
  5
24C
100
AcDbEntity
  8
DIM1
390
4D3
100
AcDbText
 10
5.55105755132
 20
-4.457904052747
 30
0.0
 40
0.06
  1
N80L7-1
100
AcDbText
  0
TEXT
  5
24D
100
AcDbEntity
  8
DIM1
390
4D3
100
AcDbText
 10
4.88605755132
 20
-4.267904052747
 30
0.0
 40
0.06
  1
04/04/96
100
AcDbText
  0
TEXT
  5
24E
100
AcDbEntity
  8
DIM1
390
4D3
100
AcDbText
 10
4.96605755132
 20
-4.072904052747
 30
0.0
 40
0.06
  1
BT
100
AcDbText
  0
TEXT
  5
24F
100
AcDbEntity
  8
DIM1
390
4D3
100
AcDbText
 10
5.48105755132
 20
-4.072904052747
 30
0.0
 40
0.06
  1
AC
100
AcDbText
  0
TEXT
  5
250
100
AcDbEntity
  8
DIM
390
4D3
100
AcDbText
 10
5.42
 20
-4.27
 30
0.0
 40
0.08
  1
A
100
AcDbText
  0
TEXT
  5
251
100
AcDbEntity
  8
DIM1
390
4D3
100
AcDbText
 10
5.43
 20
-4.27
 30
0.0
 40
0.08
  1
 
100
AcDbText
  0
TEXT
  5
252
100
AcDbEntity
  8
BORDER
390
4D3
100
AcDbText
 10
5.650053519062
 20
-4.26
 30
0.0
 40
0.05
  1
A
 72
           1
 11
5.666803519062
 21
-4.26
 31
0.0
100
AcDbText
  0
TEXT
  5
253
100
AcDbEntity
  8
BORDER
390
4D3
100
AcDbText
 10
5.599602737048
 20
-4.165
 30
0.0
 40
0.04
  1
SIZE
 72
           1
 11
5.666402737048
 21
-4.165
 31
0.0
100
AcDbText
  0
TEXT
  5
254
100
AcDbEntity
  8
DIM1
390
4D3
100
AcDbText
 10
5.83605755132
 20
-4.267904052747
 30
0.0
 40
0.06
  1
1
100
AcDbText
  0
TRACE
  5
255
100
AcDbEntity
  8
BORDER
390
4D3
100
AcDbTrace
 10
4.840790528307
 20
-3.156844923272
 30
0.11646
 11
4.808440528307
 21
-3.124494923272
 31
0.11646
 12
4.840790528307
 22
-4.486429923272
 32
0.11646
 13
4.808440528307
 23
-4.486429923272
 33
0.11646
  0
TEXT
  5
256
100
AcDbEntity
  8
BORDER
390
4D3
100
AcDbText
 10
4.886080528307
 20
-4.357029923272
 30
0.11646
 40
0.04529
  1
DWG NO.
100
AcDbText
  0
TEXT
  5
257
100
AcDbEntity
  8
BORDER
390
4D3
100
AcDbText
 10
4.882845528307
 20
-3.781199923272
 30
0.11646
 40
0.04529
  1
MATERIAL
100
AcDbText
  0
TEXT
  5
258
100
AcDbEntity
  8
BORDER
390
4D3
100
AcDbText
 10
4.886080528307
 20
-4.162929923272
 30
0.11646
 40
0.04
  1
DATE
100
AcDbText
  0
TEXT
  5
259
100
AcDbEntity
  8
BORDER
390
4D3
100
AcDbText
 10
4.882845528307
 20
-3.972064923272
 30
0.11646
 40
0.04
  1
DRAWN
100
AcDbText
  0
TEXT
  5
25A
100
AcDbEntity
  8
BORDER
390
4D3
100
AcDbText
 10
4.882845528307
 20
-3.467404923272
 30
0.11646
 40
0.04529
  1
TITLE
100
AcDbText
  0
TEXT
  5
25B
100
AcDbEntity
  8
BORDER
390
4D3
100
AcDbText
 10
5.396085415892
 20
-4.357029923272
 30
0.11646
 40
0.04529
  1
PART NO.
100
AcDbText
  0
TEXT
  5
25C
100
AcDbEntity
  8
BORDER
390
4D3
100
AcDbText
 10
5.391045415892
 20
-3.972064923272
 30
0.11646
 40
0.04
  1
ENGR.
100
AcDbText
  0
TEXT
  5
25D
100
AcDbEntity
  8
BORDER
390
4D3
100
AcDbText
 10
5.392505415892
 20
-4.166164923272
 30
0.11646
 40
0.04
  1
REV
100
AcDbText
  0
SOLID
  5
25E
100
AcDbEntity
  8
DIM
390
4D3
100
AcDbTrace
 10
3.48
 20
-0.925
 30
0.0
 11
3.48
 21
-0.865
 31
0.0
 12
3.3
 22
-0.895
 32
0.0
 13
3.3
 23
-0.895
 33
0.0
  0
TEXT
  5
25F
100
AcDbEntity
  8
DIM
390
4D3
100
AcDbText
 10
2.73
 20
-0.945
 30
0.0
 40
0.1
  1
0.775
100
AcDbText
  0
LINE
  5
260
100
AcDbEntity
  8
DIM
390
4D3
100
AcDbLine
 10
3.48
 20
-0.895
 30
0.0
 11
3.66
 21
-0.895
 31
0.0
  0
LINE
  5
261
100
AcDbEntity
  8
DIM
390
4D3
100
AcDbLine
 10
4.42
 20
-1.19
 30
0.0
 11
4.705
 21
-1.19
 31
0.0
  0
TEXT
  5
262
100
AcDbEntity
  8
DIM1
390
4D3
100
AcDbText
 10
6.37105755132
 20
-3.992904052747
 30
0.0
 40
0.06
  1
ENGINEERING
100
AcDbText
  0
TEXT
  5
263
100
AcDbEntity
  8
DIM1
390
4D3
100
AcDbText
 10
6.37105755132
 20
-4.232904052747
 30
0.0
 40
0.06
  1
DRAWING
100
AcDbText
  0
TEXT
  5
264
100
AcDbEntity
  8
DIM1
390
4D3
100
AcDbText
 10
6.37105755132
 20
-4.112904052747
 30
0.0
 40
0.06
  1
SUPPORT
100
AcDbText
  0
TEXT
  5
265
100
AcDbEntity
  8
DIM1
390
4D3
100
AcDbText
 10
6.08105755132
 20
-4.267904052747
 30
0.0
 40
0.06
  1
1
100
AcDbText
  0
LINE
  5
266
100
AcDbEntity
  8
BORDER
390
4D3
100
AcDbLine
 10
6.202725528307
 20
-3.710029923272
 30
0.11646
 11
6.202725528307
 21
-4.489664923272
 31
0.11646
  0
TEXT
  5
267
100
AcDbEntity
  8
BORDER
390
4D3
100
AcDbText
 10
6.231840528307
 20
-3.781199923272
 30
0.11646
 40
0.04529
  1
WHERE USED
100
AcDbText
  0
LWPOLYLINE
  5
268
100
AcDbEntity
  8
BORDER
390
4D3
100
AcDbPolyline
 90
       14
 70
           0
 38
0.23292
 10
5.94560668991
 20
-3.317502675986
 10
5.974784370155
 20
-3.317502675986
 42
0.302044086476
 10
5.993443988055
 20
-3.344993279777
 42
0.26536997124
 10
6.04347321971
 20
-3.338402760684
 42
0.635606440247
 10
6.035398230272
 20
-3.300765861733
 42
-0.000943783614
 10
5.975749952256
 20
-3.286865164617
 42
-0.344245433117
 10
5.940552563096
 20
-3.243060186583
 42
-0.322222187521
 10
5.976650327683
 20
-3.191372598271
 42
-0.141736434076
 10
6.03835278491
 20
-3.187905968628
 42
-0.333774480508
 10
6.082626184496
 20
-3.24035965936
 10
6.046644116835
 20
-3.24035965936
 42
0.301979239631
 10
6.02945464175
 20
-3.216471274556
 42
0.197287562224
 10
5.991295967061
 20
-3.217580551723
 42
0.728374493268
 10
5.995634253608
 20
-3.258019624982
 42
0.001956891708
  0
LWPOLYLINE
  5
278
100
AcDbEntity
  8
BORDER
390
4D3
100
AcDbPolyline
 90
        7
 70
           0
 38
0.23292
 10
5.995634253608
 20
-3.258019624982
 42
0.001956891708
 10
6.047743910978
 20
-3.268635879551
 42
-0.213696403129
 10
6.083184875186
 20
-3.293407121654
 42
-0.207558558303
 10
6.088085884733
 20
-3.330774085414
 42
-0.231198410138
 10
6.053613188334
 20
-3.369039474537
 42
-0.176335766587
 10
5.981657867203
 20
-3.371486703308
 42
-0.211590609527
 10
5.943396396807
 20
-3.337099773744
  0
SOLID
  5
281
100
AcDbEntity
  8
BORDER
390
4D3
100
AcDbTrace
 10
5.157340587864
 20
-3.261187909045
 30
0.23292
 11
5.081823556614
 21
-3.261187909045
 31
0.23292
 12
5.157340587864
 22
-3.292122596545
 32
0.23292
 13
5.081823556614
 23
-3.292122596545
 33
0.23292
  0
SOLID
  5
282
100
AcDbEntity
  8
BORDER
390
4D3
100
AcDbTrace
 10
4.892576056614
 20
-3.190220096545
 30
0.23292
 11
5.045429806614
 21
-3.190220096545
 31
0.23292
 12
4.892576056614
 22
-3.220244940295
 32
0.23292
 13
5.045429806614
 23
-3.220244940295
 33
0.23292
  0
SOLID
  5
283
100
AcDbEntity
  8
BORDER
390
4D3
100
AcDbTrace
 10
5.045429806614
 20
-3.190220096545
 30
0.23292
 11
5.081823556614
 21
-3.190220096545
 31
0.23292
 12
5.045429806614
 22
-3.372188846545
 32
0.23292
 13
5.081823556614
 23
-3.372188846545
 33
0.23292
  0
SOLID
  5
284
100
AcDbEntity
  8
BORDER
390
4D3
100
AcDbTrace
 10
4.950806056614
 20
-3.372188846545
 30
0.23292
 11
4.987199806614
 21
-3.372188846545
 31
0.23292
 12
4.950806056614
 22
-3.220244940295
 32
0.23292
 13
4.987199806614
 23
-3.220244940295
 33
0.23292
  0
LINE
  5
285
100
AcDbEntity
  8
BORDER
390
4D3
100
AcDbLine
 10
5.553122619114
 20
-3.190220096545
 30
0.23292
 11
5.514909181614
 21
-3.190220096545
 31
0.23292
  0
LINE
  5
286
100
AcDbEntity
  8
BORDER
390
4D3
100
AcDbLine
 10
5.514909181614
 20
-3.372188846545
 30
0.23292
 11
5.644106994114
 21
-3.372188846545
 31
0.23292
  0
SOLID
  5
287
100
AcDbEntity
  8
BORDER
390
4D3
100
AcDbTrace
 10
5.34920937424
 20
-3.222226641093
 30
0.23292
 11
5.322147767458
 21
-3.235000051928
 31
0.23292
 12
5.31295703308
 22
-3.193614200823
 32
0.23292
 13
5.303766298701
 23
-3.219671958926
 33
0.23292
  0
SOLID
  5
288
100
AcDbEntity
  8
BORDER
390
4D3
100
AcDbTrace
 10
5.2802788664
 20
-3.372952888943
 30
0.23292
 11
5.2802788664
 21
-3.349960749441
 31
0.23292
 12
5.327764327357
 22
-3.356602923075
 32
0.23292
 13
5.314999418497
 23
-3.33923108434
 33
0.23292
  0
LWPOLYLINE
  5
289
100
AcDbEntity
  8
BORDER
390
4D3
100
AcDbPolyline
 90
        2
 70
           0
 43
0.00727875
 38
0.23292
 10
5.201413203307
 20
-3.312035431685
 42
0.76163903364
 10
5.359629527058
 20
-3.310369436496
 42
0.76163903364
  0
LWPOLYLINE
  5
28D
100
AcDbEntity
  8
BORDER
390
4D3
100
AcDbPolyline
 90
        2
 70
           0
 43
0.00727875
 38
0.23292
 10
5.358274463452
 20
-3.246173025067
 42
0.741471343119
 10
5.201716558036
 20
-3.247097365462
 42
0.741471343119
  0
LWPOLYLINE
  5
291
100
AcDbEntity
  8
BORDER
390
4D3
100
AcDbPolyline
 90
        4
 70
           1
 43
0.00727875
 38
0.23292
 10
5.235436087691
 20
-3.240567989382
 42
0.228526832398
 10
5.236286124416
 20
-3.323189425796
 42
0.623004310532
 10
5.323827026902
 20
-3.322913227666
 42
0.229006249556
 10
5.324080660321
 20
-3.240207539524
 42
0.632312199274
  0
SOLID
  5
297
100
AcDbEntity
  8
BORDER
390
4D3
100
AcDbTrace
 10
5.157340587864
 20
-3.190220096545
 30
0.23292
 11
5.193734337864
 21
-3.190220096545
 31
0.23292
 12
5.157340587864
 22
-3.372188846545
 32
0.23292
 13
5.193734337864
 23
-3.372188846545
 33
0.23292
  0
SOLID
  5
298
100
AcDbEntity
  8
BORDER
390
4D3
100
AcDbTrace
 10
5.31295703308
 20
-3.193614200823
 30
0.23292
 11
5.303766298701
 21
-3.219671958926
 31
0.23292
 12
5.27960859264
 22
-3.18652797698
 32
0.23292
 13
5.278839913037
 23
-3.212680490567
 33
0.23292
  0
SOLID
  5
299
100
AcDbEntity
  8
BORDER
390
4D3
100
AcDbTrace
 10
5.231181777677
 20
-3.203450191653
 30
0.23292
 11
5.245018010523
 21
-3.224218364208
 31
0.23292
 12
5.206584030394
 22
-3.231141088393
 32
0.23292
 13
5.232719136882
 23
-3.249601686219
 33
0.23292
  0
SOLID
  5
29A
100
AcDbEntity
  8
BORDER
390
4D3
100
AcDbTrace
 10
5.27960859264
 20
-3.18652797698
 30
0.23292
 11
5.278839913037
 21
-3.212680490567
 31
0.23292
 12
5.231181777677
 22
-3.203450191653
 32
0.23292
 13
5.245018010523
 23
-3.224218364208
 33
0.23292
  0
SOLID
  5
29B
100
AcDbEntity
  8
BORDER
390
4D3
100
AcDbTrace
 10
5.196030467927
 20
-3.281495267366
 30
0.23292
 11
5.225645056481
 21
-3.284049949533
 31
0.23292
 12
5.209305973141
 22
-3.333610783572
 32
0.23292
 13
5.235346387214
 23
-3.323902991338
 33
0.23292
  0
SOLID
  5
29C
100
AcDbEntity
  8
BORDER
390
4D3
100
AcDbTrace
 10
5.206584030394
 20
-3.231141088393
 30
0.23292
 11
5.232719136882
 21
-3.249601686219
 31
0.23292
 12
5.196030467927
 22
-3.281495267366
 32
0.23292
 13
5.225645056481
 23
-3.284049949533
 33
0.23292
  0
LWPOLYLINE
  5
29D
100
AcDbEntity
  8
BORDER
390
4D3
100
AcDbPolyline
 90
        2
 70
           0
 43
0.00727875
 38
0.23292
 10
5.201716558036
 20
-3.247097365462
 42
0.143054065021
 10
5.201413203307
 20
-3.312035431685
 42
0.143054065021
  0
SOLID
  5
2A1
100
AcDbEntity
  8
BORDER
390
4D3
100
AcDbTrace
 10
5.247600699719
 20
-3.366821651743
 30
0.23292
 11
5.260876204933
 21
-3.347917003707
 31
0.23292
 12
5.2802788664
 22
-3.372952888943
 32
0.23292
 13
5.2802788664
 23
-3.349960749441
 33
0.23292
  0
SOLID
  5
2A2
100
AcDbEntity
  8
BORDER
390
4D3
100
AcDbTrace
 10
5.209305973141
 20
-3.333610783572
 30
0.23292
 11
5.235346387214
 21
-3.323902991338
 31
0.23292
 12
5.247600699719
 22
-3.366821651743
 32
0.23292
 13
5.260876204933
 23
-3.347917003707
 33
0.23292
  0
LINE
  5
2A3
100
AcDbEntity
  8
BORDER
390
4D3
100
AcDbLine
 10
5.514909181614
 20
-3.190220096545
 30
0.23292
 11
5.514909181614
 21
-3.372188846545
 31
0.23292
  0
SOLID
  5
2A4
100
AcDbEntity
  8
BORDER
390
4D3
100
AcDbTrace
 10
5.465973468381
 20
-3.215950869691
 30
0.23292
 11
5.478782866619
 21
-3.195215983176
 31
0.23292
 12
5.450356106233
 22
-3.217961370808
 32
0.23292
 13
5.467120756328
 23
-3.190220096545
 33
0.23292
  0
SOLID
  5
2A5
100
AcDbEntity
  8
BORDER
390
4D3
100
AcDbTrace
 10
5.478406119612
 20
-3.229145797474
 30
0.23292
 11
5.506662145139
 21
-3.214442877945
 31
0.23292
 12
5.465973468381
 22
-3.215950869691
 32
0.23292
 13
5.478782866619
 23
-3.195215983176
 33
0.23292
  0
SOLID
  5
2A6
100
AcDbEntity
  8
BORDER
390
4D3
100
AcDbTrace
 10
5.482173589683
 20
-3.24422571494
 30
0.23292
 11
5.510429615209
 21
-3.253273665419
 31
0.23292
 12
5.478406119612
 22
-3.229145797474
 32
0.23292
 13
5.506662145139
 23
-3.214442877945
 33
0.23292
  0
SOLID
  5
2A7
100
AcDbEntity
  8
BORDER
390
4D3
100
AcDbTrace
 10
5.403851814756
 20
-3.217961370808
 30
0.23292
 11
5.403851814756
 21
-3.194184774874
 31
0.23292
 12
5.450356106233
 22
-3.217961370808
 32
0.23292
 13
5.467120756328
 23
-3.190220096545
 33
0.23292
  0
LWPOLYLINE
  5
2A8
100
AcDbEntity
  8
BORDER
390
4D3
100
AcDbPolyline
 90
        2
 70
           0
 43
0.00727875
 38
0.23292
 10
5.450356106233
 20
-3.275672879331
 42
1.0
 10
5.450356106233
 20
-3.214321995808
 42
1.0
  0
LWPOLYLINE
  5
2AC
100
AcDbEntity
  8
BORDER
390
4D3
100
AcDbPolyline
 90
        2
 70
           0
 43
0.00727875
 38
0.23292
 10
5.472574605137
 20
-3.281846197591
 42
0.939934318016
 10
5.467120756328
 20
-3.193859471545
 42
0.939934318016
  0
SOLID
  5
2B0
100
AcDbEntity
  8
BORDER
390
4D3
100
AcDbTrace
 10
5.366678345403
 20
-3.372188846545
 30
0.23292
 11
5.366678345403
 21
-3.190220096545
 31
0.23292
 12
5.403851814756
 22
-3.372188846545
 32
0.23292
 13
5.403851814756
 23
-3.194184774874
 33
0.23292
  0
SOLID
  5
2B1
100
AcDbEntity
  8
BORDER
390
4D3
100
AcDbTrace
 10
5.403851814756
 20
-3.272033504331
 30
0.23292
 11
5.403851814756
 21
-3.299464384714
 31
0.23292
 12
5.450356106233
 22
-3.272033504331
 32
0.23292
 13
5.439294624782
 23
-3.299464384714
 33
0.23292
  0
SOLID
  5
2B2
100
AcDbEntity
  8
BORDER
390
4D3
100
AcDbTrace
 10
5.364527264872
 20
-3.273831220865
 30
0.23292
 11
5.3328702909
 21
-3.270765602265
 31
0.23292
 12
5.34920937424
 22
-3.222226641093
 32
0.23292
 13
5.322147767458
 23
-3.235000051928
 33
0.23292
  0
SOLID
  5
2B3
100
AcDbEntity
  8
BORDER
390
4D3
100
AcDbTrace
 10
5.353294145075
 20
-3.327990482805
 30
0.23292
 11
5.331849098192
 21
-3.305509279736
 31
0.23292
 12
5.364527264872
 22
-3.273831220865
 32
0.23292
 13
5.3328702909
 23
-3.270765602265
 33
0.23292
  0
SOLID
  5
2B4
100
AcDbEntity
  8
BORDER
390
4D3
100
AcDbTrace
 10
5.327764327357
 20
-3.356602923075
 30
0.23292
 11
5.314999418497
 21
-3.33923108434
 31
0.23292
 12
5.353294145075
 22
-3.327990482805
 32
0.23292
 13
5.331849098192
 23
-3.305509279736
 33
0.23292
  0
LWPOLYLINE
  5
2B5
100
AcDbEntity
  8
BORDER
390
4D3
100
AcDbPolyline
 90
        2
 70
           0
 43
0.00727875
 38
0.23292
 10
5.359629527058
 20
-3.310369436496
 42
0.140694817201
 10
5.358274463452
 20
-3.246173025067
 42
0.140694817201
  0
SOLID
  5
2B9
100
AcDbEntity
  8
BORDER
390
4D3
100
AcDbTrace
 10
5.476789783448
 20
-3.367128950936
 30
0.23292
 11
5.510543617519
 21
-3.363581165077
 31
0.23292
 12
5.475490241919
 22
-3.362898589718
 32
0.23292
 13
5.511246114178
 23
-3.360131124941
 33
0.23292
  0
SOLID
  5
2BA
100
AcDbEntity
  8
BORDER
390
4D3
100
AcDbTrace
 10
5.478508567783
 20
-3.372188846545
 30
0.23292
 11
5.516025383076
 21
-3.372188846545
 31
0.23292
 12
5.476789783448
 22
-3.367128950936
 32
0.23292
 13
5.510543617519
 23
-3.363581165077
 33
0.23292
  0
LWPOLYLINE
  5
2BB
100
AcDbEntity
  8
BORDER
390
4D3
100
AcDbPolyline
 90
        2
 70
           0
 43
0.00727875
 38
0.23292
 10
5.507624277598
 20
-3.360487986509
 42
0.095066976449
 10
5.510530988736
 20
-3.370308146012
 42
0.140491545427
  0
SOLID
  5
2BF
100
AcDbEntity
  8
BORDER
390
4D3
100
AcDbTrace
 10
5.469490651978
 20
-3.272676536498
 30
0.23292
 11
5.483397358807
 21
-3.279159978286
 31
0.23292
 12
5.450356106233
 22
-3.272033504331
 32
0.23292
 13
5.473024050932
 23
-3.285457713736
 33
0.23292
  0
SOLID
  5
2C0
100
AcDbEntity
  8
BORDER
390
4D3
100
AcDbTrace
 10
5.469490651978
 20
-3.272676536498
 30
0.23292
 11
5.483397358807
 21
-3.279159978286
 31
0.23292
 12
5.482173589683
 22
-3.24422571494
 32
0.23292
 13
5.510429615209
 23
-3.253273665419
 33
0.23292
  0
SOLID
  5
2C1
100
AcDbEntity
  8
BORDER
390
4D3
100
AcDbTrace
 10
5.455172262754
 20
-3.298099182487
 30
0.23292
 11
5.473024050932
 21
-3.285457713736
 31
0.23292
 12
5.439294624782
 22
-3.299464384714
 32
0.23292
 13
5.450356106233
 23
-3.272033504331
 33
0.23292
  0
SOLID
  5
2C2
100
AcDbEntity
  8
BORDER
390
4D3
100
AcDbTrace
 10
5.465046456818
 20
-3.307926473553
 30
0.23292
 11
5.484727625386
 21
-3.294140479605
 31
0.23292
 12
5.455172262754
 22
-3.298099182487
 32
0.23292
 13
5.473024050932
 23
-3.285457713736
 33
0.23292
  0
SOLID
  5
2C3
100
AcDbEntity
  8
BORDER
390
4D3
100
AcDbTrace
 10
5.473410953459
 20
-3.319250682868
 30
0.23292
 11
5.502932706312
 21
-3.308911187407
 31
0.23292
 12
5.465046456818
 22
-3.307926473553
 32
0.23292
 13
5.484727625386
 23
-3.294140479605
 33
0.23292
  0
SOLID
  5
2C4
100
AcDbEntity
  8
BORDER
390
4D3
100
AcDbTrace
 10
5.472681447404
 20
-3.330113188578
 30
0.23292
 11
5.507257334237
 21
-3.319648454875
 31
0.23292
 12
5.473410953459
 22
-3.319250682868
 32
0.23292
 13
5.502932706312
 23
-3.308911187407
 33
0.23292
  0
SOLID
  5
2C5
100
AcDbEntity
  8
BORDER
390
4D3
100
AcDbTrace
 10
5.472681447404
 20
-3.330113188578
 30
0.23292
 11
5.475490241919
 21
-3.362898589718
 31
0.23292
 12
5.507257334237
 22
-3.319648454875
 32
0.23292
 13
5.511246114178
 23
-3.360131124941
 33
0.23292
  0
LWPOLYLINE
  5
2C6
100
AcDbEntity
  8
BORDER
390
4D3
100
AcDbPolyline
 90
        2
 70
           0
 43
0.00727875
 38
0.23292
 10
5.479116334014
 20
-3.362587934755
 42
0.114836022525
 10
5.481624832068
 20
-3.370308966948
 42
0.114836022525
  0
LWPOLYLINE
  5
2CA
100
AcDbEntity
  8
BORDER
390
4D3
100
AcDbPolyline
 90
        2
 70
           0
 43
0.00727875
 38
0.23292
 10
5.4763075395
 20
-3.329802533614
 42
0.389397748799
 10
5.439294624782
 20
-3.295825009714
 42
0.389397748799
  0
LWPOLYLINE
  5
2CE
100
AcDbEntity
  8
BORDER
390
4D3
100
AcDbPolyline
 90
        2
 70
           0
 43
0.00727875
 38
0.23292
 10
5.503635497657
 20
-3.320005316443
 42
0.358134556776
 10
5.472671693342
 20
-3.289079991269
 42
0.358134556776
  0
LWPOLYLINE
  5
2D2
100
AcDbEntity
  8
BORDER
390
4D3
100
AcDbPolyline
 90
        2
 70
           0
 43
0.00727875
 38
0.23292
 10
5.467120756328
 20
-3.193859471545
 10
5.366678345403
 20
-3.193859471545
  0
LWPOLYLINE
  5
2D6
100
AcDbEntity
  8
BORDER
390
4D3
100
AcDbPolyline
 90
        4
 70
           0
 38
0.23292
 10
5.642350995676
 20
-3.341254159045
 10
5.695968087864
 20
-3.190220096545
 10
5.736911056614
 20
-3.190220096545
 10
5.796941177581
 20
-3.359319028848
  0
LWPOLYLINE
  5
2DC
100
AcDbEntity
  8
BORDER
390
4D3
100
AcDbPolyline
 90
        4
 70
           0
 38
0.23292
 10
5.751244084537
 20
-3.333065565295
 10
5.68163505994
 20
-3.333065565295
 10
5.669582619114
 20
-3.372188846545
 10
5.631369181614
 20
-3.372188846545
  0
LINE
  5
2E2
100
AcDbEntity
  8
BORDER
390
4D3
100
AcDbLine
 10
5.690043739586
 20
-3.305770252795
 30
0.23292
 11
5.742835404891
 21
-3.305770252795
 31
0.23292
  0
LINE
  5
2E3
100
AcDbEntity
  8
BORDER
390
4D3
100
AcDbLine
 10
5.742835404891
 20
-3.305770252795
 30
0.23292
 11
5.716439572239
 21
-3.22008706218
 31
0.23292
  0
LINE
  5
2E4
100
AcDbEntity
  8
BORDER
390
4D3
100
AcDbLine
 10
5.553122619114
 20
-3.341254159045
 30
0.23292
 11
5.553122619114
 21
-3.190220096545
 31
0.23292
  0
LINE
  5
2E5
100
AcDbEntity
  8
BORDER
390
4D3
100
AcDbLine
 10
5.642350995676
 20
-3.341254159045
 30
0.23292
 11
5.553122619114
 21
-3.341254159045
 31
0.23292
  0
LINE
  5
2E6
100
AcDbEntity
  8
BORDER
390
4D3
100
AcDbLine
 10
5.716439572239
 20
-3.22008706218
 30
0.23292
 11
5.690043739586
 21
-3.305770252795
 31
0.23292
  0
ARC
  5
2E7
100
AcDbEntity
  8
BORDER
390
4D3
100
AcDbCircle
 10
5.899569920737
 20
-3.236116456689
 30
0.23292
 40
0.040957331997
100
AcDbArc
 50
358.6532608214
 51
58.670205836283
  0
LINE
  5
2E8
100
AcDbEntity
  8
BORDER
390
4D3
100
AcDbLine
 10
5.796941177581
 20
-3.190220096545
 30
0.23292
 11
5.796941177581
 21
-3.359319028848
 31
0.23292
  0
LINE
  5
2E9
100
AcDbEntity
  8
BORDER
390
4D3
100
AcDbLine
 10
5.796941177581
 20
-3.372188846545
 30
0.23292
 11
5.885196021331
 21
-3.372188846545
 31
0.23292
  0
LINE
  5
2EA
100
AcDbEntity
  8
BORDER
390
4D3
100
AcDbLine
 10
5.879348380741
 20
-3.217515409045
 30
0.23292
 11
5.833334927581
 21
-3.217515409045
 31
0.23292
  0
LINE
  5
2EB
100
AcDbEntity
  8
BORDER
390
4D3
100
AcDbLine
 10
5.833334927581
 20
-3.263007596545
 30
0.23292
 11
5.879348382659
 21
-3.263007596545
 31
0.23292
  0
LINE
  5
2EC
100
AcDbEntity
  8
BORDER
390
4D3
100
AcDbLine
 10
5.833334927581
 20
-3.343983690295
 30
0.23292
 11
5.877007427581
 21
-3.343983690295
 31
0.23292
  0
LINE
  5
2ED
100
AcDbEntity
  8
BORDER
390
4D3
100
AcDbLine
 10
5.881699519231
 20
-3.291212752795
 30
0.23292
 11
5.833334927581
 21
-3.291212752795
 31
0.23292
  0
LWPOLYLINE
  5
2EE
100
AcDbEntity
  8
BORDER
390
4D3
100
AcDbPolyline
 90
        3
 70
           0
 38
0.23292
 10
5.801509962864
 20
-3.372188846545
 10
5.763296525364
 20
-3.372188846545
 10
5.751244084537
 20
-3.333065565295
  0
LINE
  5
2F3
100
AcDbEntity
  8
BORDER
390
4D3
100
AcDbLine
 10
5.833334927581
 20
-3.217515409045
 30
0.23292
 11
5.833334927581
 21
-3.263007596545
 31
0.23292
  0
LINE
  5
2F4
100
AcDbEntity
  8
BORDER
390
4D3
100
AcDbLine
 10
5.833334927581
 20
-3.291212752795
 30
0.23292
 11
5.833334927581
 21
-3.343983690295
 31
0.23292
  0
ARC
  5
2F5
100
AcDbEntity
  8
BORDER
390
4D3
100
AcDbCircle
 10
5.899306268611
 20
-3.322203796394
 30
0.23292
 40
0.046538473821
100
AcDbArc
 50
5.7976668128
 51
41.821431110538
  0
ARC
  5
2F6
100
AcDbEntity
  8
BORDER
390
4D3
100
AcDbCircle
 10
5.905790337718
 20
-3.236262694727
 30
0.23292
 40
0.034735196272
100
AcDbArc
 50
313.15756291156
 51
358.653260821401
  0
ARC
  5
2F7
100
AcDbEntity
  8
BORDER
390
4D3
100
AcDbCircle
 10
5.878827115081
 20
-3.207507127795
 30
0.23292
 40
0.074154709264
100
AcDbArc
 50
295.378395342112
 51
313.157562911559
  0
ARC
  5
2F8
100
AcDbEntity
  8
BORDER
390
4D3
100
AcDbCircle
 10
5.88530740265
 20
-3.334729652372
 30
0.23292
 40
0.065323183459
100
AcDbArc
 50
41.821431110538
 51
67.211169878313
  0
ARC
  5
2F9
100
AcDbEntity
  8
BORDER
390
4D3
100
AcDbCircle
 10
5.899306268611
 20
-3.322203796394
 30
0.23292
 40
0.046538473821
100
AcDbArc
 50
297.452647876124
 51
341.33231151504
  0
ARC
  5
2FA
100
AcDbEntity
  8
BORDER
390
4D3
100
AcDbCircle
 10
5.885196021331
 20
-3.295043482509
 30
0.23292
 40
0.077145364036
100
AcDbArc
 50
269.999999999995
 51
297.452647876119
  0
ARC
  5
2FB
100
AcDbEntity
  8
BORDER
390
4D3
100
AcDbCircle
 10
5.879348382659
 20
-3.240261502795
 30
0.23292
 40
0.02274609375
100
AcDbArc
 50
270.0
 51
90.000004829675
  0
ARC
  5
2FC
100
AcDbEntity
  8
BORDER
390
4D3
100
AcDbCircle
 10
5.877007427581
 20
-3.311676939469
 30
0.23292
 40
0.032306750825
100
AcDbArc
 50
270.0
 51
313.227508124747
  0
ARC
  5
2FD
100
AcDbEntity
  8
BORDER
390
4D3
100
AcDbCircle
 10
5.881699519231
 20
-3.316668704771
 30
0.23292
 40
0.025455951976
100
AcDbArc
 50
313.227508124748
 51
90.0
  0
LINE
  5
2FE
100
AcDbEntity
  8
BORDER
390
4D3
100
AcDbLine
 10
5.881957353963
 20
-3.190220096545
 30
0.23292
 11
5.796941177581
 21
-3.190220096545
 31
0.23292
  0
ARC
  5
2FF
100
AcDbEntity
  8
BORDER
390
4D3
100
AcDbCircle
 10
5.881957353963
 20
-3.265050135621
 30
0.23292
 40
0.074830039076
100
AcDbArc
 50
58.670205836284
 51
90.000000000001
  0
TEXT
  5
300
100
AcDbEntity
  8
BORDER
390
4D3
100
AcDbText
 10
6.305095394672
 20
-3.377041346545
 30
0.23292
 40
0.0727875
  1
NEWTON NJ
100
AcDbText
  0
TEXT
  5
301
100
AcDbEntity
  8
BORDER
390
4D3
100
AcDbText
 10
6.305095394672
 20
-3.255728846545
 30
0.23292
 40
0.0727875
  1
PO BOX 366
100
AcDbText
  0
SOLID
  5
302
100
AcDbEntity
  8
BORDER
390
4D3
100
AcDbTrace
 10
6.162389603833
 20
-3.24704369886
 30
0.23292
 11
6.163330861951
 21
-3.261623488925
 31
0.23292
 12
6.185155651995
 22
-3.23980311113
 32
0.23292
 13
6.19156860549
 23
-3.250368781055
 33
0.23292
  0
LWPOLYLINE
  5
303
100
AcDbEntity
  8
BORDER
390
4D3
100
AcDbPolyline
 90
        2
 70
           0
 43
0.003423924
 38
0.23292
 10
6.141234598938
 20
-3.257666841336
 42
0.270661132293
 10
6.189848055819
 20
-3.250091138145
 42
0.270661132293
  0
LWPOLYLINE
  5
307
100
AcDbEntity
  8
BORDER
390
4D3
100
AcDbPolyline
 90
        6
 70
           0
 43
0.003423924
 38
0.23292
 10
6.14314327855
 20
-3.201447537726
 42
0.342627443964
 10
6.126634668724
 20
-3.219002569088
 42
0.294280948996
 10
6.138398509338
 20
-3.241715179601
 42
0.273537537364
 10
6.181213159319
 20
-3.241136370427
 42
0.208169861593
 10
6.192095078516
 20
-3.225658825155
 42
0.418984908217
 10
6.175317895727
 20
-3.200667552508
 42
0.418984908217
  0
SOLID
  5
30F
100
AcDbEntity
  8
BORDER
390
4D3
100
AcDbTrace
 10
6.117043242081
 20
-3.325452101996
 30
0.23292
 11
6.202639477051
 21
-3.271558176274
 31
0.23292
 12
6.117049620796
 22
-3.342605574218
 32
0.23292
 13
6.202641342081
 23
-3.289500899996
 33
0.23292
  0
SOLID
  5
310
100
AcDbEntity
  8
BORDER
390
4D3
100
AcDbTrace
 10
6.117043242081
 20
-3.271097308496
 30
0.23292
 11
6.202641342081
 21
-3.271097308496
 31
0.23292
 12
6.117043242081
 22
-3.289072909496
 32
0.23292
 13
6.202641342081
 23
-3.289072909496
 33
0.23292
  0
SOLID
  5
311
100
AcDbEntity
  8
BORDER
390
4D3
100
AcDbTrace
 10
6.202641342081
 20
-3.343855693496
 30
0.23292
 11
6.117043242081
 21
-3.343855693496
 31
0.23292
 12
6.202641342081
 22
-3.325880092496
 32
0.23292
 13
6.117043242081
 23
-3.325880092496
 33
0.23292
  0
SOLID
  5
312
100
AcDbEntity
  8
BORDER
390
4D3
100
AcDbTrace
 10
6.11704324745
 20
-3.376810961179
 30
0.23292
 11
6.11704324745
 21
-3.358835360179
 31
0.23292
 12
6.20264134745
 22
-3.376810961179
 32
0.23292
 13
6.20264134745
 23
-3.358835360179
 33
0.23292
  0
SOLID
  5
313
100
AcDbEntity
  8
BORDER
390
4D3
100
AcDbTrace
 10
6.126778671703
 20
-3.214435136135
 30
0.23292
 11
6.116895461464
 21
-3.210359065794
 31
0.23292
 12
6.128504311586
 22
-3.232620680732
 32
0.23292
 13
6.118150472288
 23
-3.236853523009
 33
0.23292
  0
LWPOLYLINE
  5
314
100
AcDbEntity
  8
BORDER
390
4D3
100
AcDbPolyline
 90
        2
 70
           0
 43
0.003423924
 38
0.23292
 10
6.118364965576
 20
-3.208848097155
 42
0.398620806069
 10
6.141234598938
 20
-3.257666841336
 42
0.398620806069
  0
SOLID
  5
318
100
AcDbEntity
  8
BORDER
390
4D3
100
AcDbTrace
 10
6.144819452297
 20
-3.245632751435
 30
0.23292
 11
6.136034376529
 21
-3.256136471159
 31
0.23292
 12
6.162389603833
 22
-3.24704369886
 32
0.23292
 13
6.163330861951
 23
-3.261623488925
 33
0.23292
  0
SOLID
  5
319
100
AcDbEntity
  8
BORDER
390
4D3
100
AcDbTrace
 10
6.128504311586
 20
-3.232620680732
 30
0.23292
 11
6.118150472288
 21
-3.236853523009
 31
0.23292
 12
6.144819452297
 22
-3.245632751435
 32
0.23292
 13
6.136034376529
 23
-3.256136471159
 33
0.23292
  0
SOLID
  5
31A
100
AcDbEntity
  8
BORDER
390
4D3
100
AcDbTrace
 10
6.141059480353
 20
-3.202065324655
 30
0.23292
 11
6.139946164299
 21
-3.187247848106
 31
0.23292
 12
6.143409135041
 22
-3.20313873086
 32
0.23292
 13
6.143409135041
 23
-3.18639281702
 33
0.23292
  0
SOLID
  5
31B
100
AcDbEntity
  8
BORDER
390
4D3
100
AcDbTrace
 10
6.137446263706
 20
-3.202990784794
 30
0.23292
 11
6.128818064292
 21
-3.193584468623
 31
0.23292
 12
6.141059480353
 22
-3.202065324655
 32
0.23292
 13
6.139946164299
 23
-3.187247848106
 33
0.23292
  0
LWPOLYLINE
  5
31C
100
AcDbEntity
  8
BORDER
390
4D3
100
AcDbPolyline
 90
        2
 70
           0
 43
0.003423924
 38
0.23292
 10
6.143092897585
 20
-3.188162956102
 42
0.28412093169
 10
6.118364965576
 20
-3.208848097155
 42
0.288844763467
  0
SOLID
  5
320
100
AcDbEntity
  8
BORDER
390
4D3
100
AcDbTrace
 10
6.137446263706
 20
-3.202990784794
 30
0.23292
 11
6.128818064292
 21
-3.193584468623
 31
0.23292
 12
6.126778671703
 22
-3.214435136135
 32
0.23292
 13
6.116895461464
 23
-3.210359065794
 33
0.23292
  0
SOLID
  5
321
100
AcDbEntity
  8
BORDER
390
4D3
100
AcDbTrace
 10
6.192608543894
 20
-3.223001963873
 30
0.23292
 11
6.203701220209
 21
-3.228544610391
 31
0.23292
 12
6.188102144141
 22
-3.208106101357
 32
0.23292
 13
6.198674851254
 23
-3.201004585506
 33
0.23292
  0
LWPOLYLINE
  5
322
100
AcDbEntity
  8
BORDER
390
4D3
100
AcDbPolyline
 90
        2
 70
           0
 43
0.003423924
 38
0.23292
 10
6.202468498978
 20
-3.22871348587
 42
0.152190792067
 10
6.199485769095
 20
-3.204588934048
 42
0.152190792067
  0
SOLID
  5
326
100
AcDbEntity
  8
BORDER
390
4D3
100
AcDbTrace
 10
6.185155651995
 20
-3.23980311113
 30
0.23292
 11
6.19156860549
 21
-3.250368781055
 31
0.23292
 12
6.192608543894
 22
-3.223001963873
 32
0.23292
 13
6.203701220209
 23
-3.228544610391
 33
0.23292
  0
LWPOLYLINE
  5
327
100
AcDbEntity
  8
BORDER
390
4D3
100
AcDbPolyline
 90
        2
 70
           0
 43
0.003423924
 38
0.23292
 10
6.189848055819
 20
-3.250091138145
 42
0.179000650425
 10
6.202468498978
 20
-3.22871348587
 42
0.179000650425
  0
SOLID
  5
32B
100
AcDbEntity
  8
BORDER
390
4D3
100
AcDbTrace
 10
6.177353051975
 20
-3.201774501353
 30
0.23292
 11
6.179173356726
 21
-3.186055201387
 31
0.23292
 12
6.175001222309
 22
-3.202349970956
 32
0.23292
 13
6.175001222309
 23
-3.185036246108
 33
0.23292
  0
LWPOLYLINE
  5
32C
100
AcDbEntity
  8
BORDER
390
4D3
100
AcDbPolyline
 90
        2
 70
           0
 43
0.003423924
 38
0.23292
 10
6.199485769095
 20
-3.204588934048
 42
0.261966093676
 10
6.175237691726
 20
-3.186786427549
 42
0.265646577079
  0
SOLID
  5
330
100
AcDbEntity
  8
BORDER
390
4D3
100
AcDbTrace
 10
6.188102144141
 20
-3.208106101357
 30
0.23292
 11
6.198674851254
 21
-3.201004585506
 31
0.23292
 12
6.177353051975
 22
-3.201774501353
 32
0.23292
 13
6.179173356726
 23
-3.186055201387
 33
0.23292
  0
LINE
  5
331
100
AcDbEntity
  8
DIM
390
4D3
100
AcDbLine
 10
3.3
 20
0.2325
 30
0.0
 11
3.3
 21
1.28
 31
0.0
  0
LINE
  5
332
100
AcDbEntity
  8
DIM
390
4D3
100
AcDbLine
 10
2.675
 20
0.3525
 30
0.0
 11
2.675
 21
1.28
 31
0.0
  0
TEXT
  5
333
100
AcDbEntity
  8
DIM
390
4D3
100
AcDbText
 10
3.705
 20
0.855
 30
0.0
 40
0.1
  1
0.31
100
AcDbText
  0
SOLID
  5
334
100
AcDbEntity
  8
DIM
390
4D3
100
AcDbTrace
 10
3.48
 20
0.875
 30
0.0
 11
3.48
 21
0.935
 31
0.0
 12
3.3
 22
0.905
 32
0.0
 13
3.3
 23
0.905
 33
0.0
  0
SOLID
  5
335
100
AcDbEntity
  8
DIM
390
4D3
100
AcDbTrace
 10
2.82
 20
0.875
 30
0.0
 11
2.82
 21
0.935
 31
0.0
 12
3.0
 22
0.905
 32
0.0
 13
3.0
 23
0.905
 33
0.0
  0
LINE
  5
336
100
AcDbEntity
  8
DIM
390
4D3
100
AcDbLine
 10
3.0
 20
0.2525
 30
0.0
 11
3.0
 21
0.995
 31
0.0
  0
LINE
  5
337
100
AcDbEntity
  8
DIM
390
4D3
100
AcDbLine
 10
3.3
 20
0.2325
 30
0.0
 11
3.3
 21
0.995
 31
0.0
  0
ARC
  5
338
100
AcDbEntity
  8
0
390
4D3
100
AcDbCircle
 10
2.66625
 20
0.2175
 30
0.0
 40
0.141272122161
100
AcDbArc
 50
149.12318692094
 51
210.87681307906
  0
LINE
  5
339
100
AcDbEntity
  8
0
390
4D3
100
AcDbLine
 10
2.675
 20
0.29
 30
0.0
 11
2.675
 21
-0.29
 31
0.0
  0
LINE
  5
33A
100
AcDbEntity
  8
0
390
4D3
100
AcDbLine
 10
3.28
 20
0.19
 30
0.0
 11
2.675
 21
0.19
 31
0.0
  0
LINE
  5
33B
100
AcDbEntity
  8
0
390
4D3
100
AcDbLine
 10
2.675
 20
-0.19
 30
0.0
 11
3.28
 21
-0.19
 31
0.0
  0
LINE
  5
33C
100
AcDbEntity
  8
0
390
4D3
100
AcDbLine
 10
2.525
 20
-0.225
 30
0.0
 11
2.525
 21
0.22
 31
0.0
  0
ARC
  5
33D
100
AcDbEntity
  8
0
390
4D3
100
AcDbCircle
 10
3.060625
 20
0.0
 30
0.0
 40
0.535625
100
AcDbArc
 50
164.293373396044
 51
195.706626603956
  0
ARC
  5
33E
100
AcDbEntity
  8
0
390
4D3
100
AcDbCircle
 10
2.66625
 20
-0.2175
 30
0.0
 40
0.141272122161
100
AcDbArc
 50
149.12318692094
 51
210.87681307906
  0
LINE
  5
33F
100
AcDbEntity
  8
0
390
4D3
100
AcDbLine
 10
2.675
 20
-0.29
 30
0.0
 11
2.545
 21
-0.29
 31
0.0
  0
LINE
  5
340
100
AcDbEntity
  8
0
390
4D3
100
AcDbLine
 10
2.525
 20
-0.145
 30
0.0
 11
2.675
 21
-0.145
 31
0.0
  0
LINE
  5
341
100
AcDbEntity
  8
0
390
4D3
100
AcDbLine
 10
2.675
 20
0.145
 30
0.0
 11
2.525
 21
0.145
 31
0.0
  0
LINE
  5
342
100
AcDbEntity
  8
0
390
4D3
100
AcDbLine
 10
3.025
 20
-0.12
 30
0.0
 11
3.025
 21
0.12
 31
0.0
  0
LINE
  5
343
100
AcDbEntity
  8
0
390
4D3
100
AcDbLine
 10
3.0
 20
-0.19
 30
0.0
 11
3.0
 21
0.19
 31
0.0
  0
LINE
  5
344
100
AcDbEntity
  8
0
390
4D3
100
AcDbLine
 10
3.05
 20
-0.19
 30
0.0
 11
3.05
 21
0.19
 31
0.0
  0
LINE
  5
345
100
AcDbEntity
  8
0
390
4D3
100
AcDbLine
 10
3.075
 20
-0.12
 30
0.0
 11
3.075
 21
0.12
 31
0.0
  0
LINE
  5
346
100
AcDbEntity
  8
0
390
4D3
100
AcDbLine
 10
3.1
 20
-0.19
 30
0.0
 11
3.1
 21
0.19
 31
0.0
  0
LINE
  5
347
100
AcDbEntity
  8
0
390
4D3
100
AcDbLine
 10
3.125
 20
-0.12
 30
0.0
 11
3.125
 21
0.12
 31
0.0
  0
LINE
  5
348
100
AcDbEntity
  8
0
390
4D3
100
AcDbLine
 10
3.15
 20
-0.19
 30
0.0
 11
3.15
 21
0.19
 31
0.0
  0
LINE
  5
349
100
AcDbEntity
  8
0
390
4D3
100
AcDbLine
 10
3.175
 20
-0.12
 30
0.0
 11
3.175
 21
0.12
 31
0.0
  0
LINE
  5
34A
100
AcDbEntity
  8
0
390
4D3
100
AcDbLine
 10
3.2
 20
-0.19
 30
0.0
 11
3.2
 21
0.19
 31
0.0
  0
LINE
  5
34B
100
AcDbEntity
  8
0
390
4D3
100
AcDbLine
 10
3.225
 20
-0.12
 30
0.0
 11
3.225
 21
0.12
 31
0.0
  0
LINE
  5
34C
100
AcDbEntity
  8
0
390
4D3
100
AcDbLine
 10
3.25
 20
-0.19
 30
0.0
 11
3.25
 21
0.19
 31
0.0
  0
LINE
  5
34D
100
AcDbEntity
  8
0
390
4D3
100
AcDbLine
 10
3.275
 20
-0.12
 30
0.0
 11
3.275
 21
0.12
 31
0.0
  0
LINE
  5
34E
100
AcDbEntity
  8
0
390
4D3
100
AcDbLine
 10
3.3
 20
-0.17
 30
0.0
 11
3.3
 21
0.17
 31
0.0
  0
SOLID
  5
34F
100
AcDbEntity
  8
DIM
390
4D3
100
AcDbTrace
 10
3.287079772444
 20
-0.325633805373
 30
0.0
 11
3.324470208109
 21
-0.278708808614
 31
0.0
 12
3.165
 22
-0.19
 32
0.0
 13
3.165
 23
-0.19
 33
0.0
  0
LINE
  5
350
100
AcDbEntity
  8
0
390
4D3
100
AcDbLine
 10
3.3
 20
-0.17
 30
0.0
 11
3.28
 21
-0.19
 31
0.0
  0
LINE
  5
351
100
AcDbEntity
  8
0
390
4D3
100
AcDbLine
 10
3.28
 20
0.19
 30
0.0
 11
3.3
 21
0.17
 31
0.0
  0
LINE
  5
352
100
AcDbEntity
  8
0
390
4D3
100
AcDbLine
 10
2.545
 20
0.29
 30
0.0
 11
2.675
 21
0.29
 31
0.0
  0
LINE
  5
353
100
AcDbEntity
  8
DIM
390
4D3
100
AcDbLine
 10
2.82
 20
0.905
 30
0.0
 11
2.675
 21
0.905
 31
0.0
  0
LINE
  5
354
100
AcDbEntity
  8
DIM
390
4D3
100
AcDbLine
 10
3.48
 20
0.905
 30
0.0
 11
3.66
 21
0.905
 31
0.0
  0
SOLID
  5
355
100
AcDbEntity
  8
DIM
390
4D3
100
AcDbTrace
 10
3.48
 20
1.16
 30
0.0
 11
3.48
 21
1.22
 31
0.0
 12
3.3
 22
1.19
 32
0.0
 13
3.3
 23
1.19
 33
0.0
  0
TEXT
  5
356
100
AcDbEntity
  8
DIM
390
4D3
100
AcDbText
 10
2.795
 20
1.14
 30
0.0
 40
0.1
  1
0.625
100
AcDbText
  0
LINE
  5
357
100
AcDbEntity
  8
DIM
390
4D3
100
AcDbLine
 10
3.48
 20
1.19
 30
0.0
 11
3.66
 21
1.19
 31
0.0
  0
TEXT
  5
358
100
AcDbEntity
  8
DIM
390
4D3
100
AcDbText
 10
6.15
 20
2.805
 30
0.0
 40
0.04
  1
REV. A: INITIAL RELEASE
100
AcDbText
  0
ENDBLK
  5
35A
100
AcDbEntity
  8
0
390
4D3
100
AcDbBlockEnd
  0
BLOCK
  5
4B3
100
AcDbEntity
  8
0
390
4D3
100
AcDbBlockBegin
  2
A$C62AC45B8
 70
          64
 10
0.0
 20
0.0
 30
0.0
  3
A$C62AC45B8
  1

  0
CIRCLE
  5
4B1
100
AcDbEntity
  8
S3
390
4D3
100
AcDbCircle
 10
0.042647813931
 20
0.044297004328
 30
0.0
 40
0.031
  0
CIRCLE
  5
4B2
100
AcDbEntity
  8
S3
390
4D3
  6
HIDDEN
100
AcDbCircle
 10
0.042647813931
 20
0.044297004328
 30
0.0
 40
0.043
  0
ENDBLK
  5
4B4
100
AcDbEntity
  8
0
390
4D3
100
AcDbBlockEnd
  0
BLOCK
  5
4BD
100
AcDbEntity
  8
0
390
4D3
100
AcDbBlockBegin
  2
COPYRIGHT00
 70
          64
 10
0.0
 20
0.0
 30
0.0
  3
COPYRIGHT00
  1

  0
MTEXT
  5
4BC
100
AcDbEntity
  8
BORDER
390
4D3
100
AcDbMText
 10
13.885874101485
 20
0.198333401186
 30
0.0
 40
0.25
 41
9.341
 71
           1
 72
           5
  1
\fVerdana|b0|i0|c0|p34;COPYRIGHT \fSymbol|b0|i0|c2|p18;\H0.3;Ó\fVerdana|b0|i0|c0|p34;\H0.25; 2000 by THORLABS INC.
 73
           1
 44
1.0
  0
ENDBLK
  5
4BE
100
AcDbEntity
  8
0
390
4D3
100
AcDbBlockEnd
  0
BLOCK
  5
4C6
100
AcDbEntity
  8
0
390
4D3
100
AcDbBlockBegin
  2
ESD-INFO
 70
          64
 10
0.0
 20
0.0
 30
0.0
  3
ESD-INFO
  1

  0
LINE
  5
4C3
100
AcDbEntity
  8
D1
390
4D3
100
AcDbLine
 10
2.987898049942
 20
0.000296665122
 30
0.0
 11
-2.987323406216
 21
0.000296665122
 31
0.0
  0
LINE
  5
4C4
100
AcDbEntity
  8
D1
390
4D3
100
AcDbLine
 10
-2.892290062977
 20
0.059636699093
 30
0.0
 11
2.892864706703
 21
0.059636699093
 31
0.0
  0
TEXT
  5
4C5
100
AcDbEntity
  8
D1
390
4D3
100
AcDbText
 10
-2.794564803034
 20
0.106518796107
 30
0.0
 40
0.15
  1
INFORMATION ONLY, NOT FOR MANUFACTURING
100
AcDbText
  0
ENDBLK
  5
4C7
100
AcDbEntity
  8
0
390
4D3
100
AcDbBlockEnd
  0
ENDSEC
  0
SECTION
  2
ENTITIES
  0
LINE
  5
363
100
AcDbEntity
  8
0
390
4D3
 62
           0
100
AcDbLine
 10
3.410132575353
 20
4.09506754416
 30
0.0
 11
3.176849093707
 21
3.538368326597
 31
0.0
  0
TEXT
  5
364
100
AcDbEntity
  8
0
390
4D3
 62
           0
100
AcDbText
 10
1.570182427041
 20
3.488368326597
 30
0.0
 40
0.1
  1
1/4"-80 THREAD
100
AcDbText
  0
LINE
  5
365
100
AcDbEntity
  8
0
390
4D3
 62
           0
100
AcDbLine
 10
3.176849093707
 20
3.538368326597
 30
0.0
 11
2.966849093707
 21
3.538368326597
 31
0.0
  0
LINE
  5
366
100
AcDbEntity
  8
0
390
4D3
 62
           0
100
AcDbLine
 10
7.580235149334
 20
3.461080716614
 30
0.0
 11
7.400235149334
 21
3.461080716614
 31
0.0
  0
LINE
  5
368
100
AcDbEntity
  8
0
390
4D3
 62
           0
100
AcDbLine
 10
3.1197
 20
5.356080716614
 30
0.0
 11
2.9397
 21
5.356080716614
 31
0.0
  0
LINE
  5
369
100
AcDbEntity
  8
0
390
4D3
 62
           0
100
AcDbLine
 10
3.7947
 20
4.558580716614
 30
0.0
 11
3.7947
 21
5.446080716614
 31
0.0
  0
LINE
  5
36A
100
AcDbEntity
  8
0
390
4D3
 62
           0
100
AcDbLine
 10
3.2997
 20
4.558580716614
 30
0.0
 11
3.2997
 21
5.446080716614
 31
0.0
  0
LINE
  5
36B
100
AcDbEntity
  8
0
390
4D3
 62
           0
100
AcDbLine
 10
3.799434102738
 20
4.500571799766
 30
0.0
 11
3.549737032814
 21
4.644734470303
 31
0.0
  0
LINE
  5
36C
100
AcDbEntity
  8
0
390
4D3
 62
           0
100
AcDbLine
 10
3.299854983213
 20
4.500507763511
 30
0.0
 11
3.550951891422
 21
4.645478631058
 31
0.0
  0
CIRCLE
  5
36D
100
AcDbEntity
  8
0
390
4D3
 62
           0
100
AcDbCircle
 10
3.5497
 20
4.356080716614
 30
0.0
 40
0.25
  0
LINE
  5
36E
100
AcDbEntity
  8
0
390
4D3
 62
           0
100
AcDbLine
 10
3.4597
 20
4.356080716614
 30
0.0
 11
3.6397
 21
4.356080716614
 31
0.0
  0
CIRCLE
  5
36F
100
AcDbEntity
  8
0
390
4D3
 62
           0
100
AcDbCircle
 10
3.5497
 20
4.356080716614
 30
0.0
 40
0.105
  0
CIRCLE
  5
370
100
AcDbEntity
  8
0
390
4D3
  6
HIDDEN
 62
           0
100
AcDbCircle
 10
3.5497
 20
4.356080716614
 30
0.0
 40
0.125
  0
LINE
  5
372
100
AcDbEntity
  8
0
390
4D3
 62
           0
100
AcDbLine
 10
3.549237402774
 20
4.067138501386
 30
0.0
 11
3.799434102738
 21
4.211589633461
 31
0.0
  0
LINE
  5
373
100
AcDbEntity
  8
0
390
4D3
 62
           0
100
AcDbLine
 10
3.5497
 20
4.266080716614
 30
0.0
 11
3.5497
 21
4.446080716614
 31
0.0
  0
LINE
  5
374
100
AcDbEntity
  8
0
390
4D3
 62
           0
100
AcDbLine
 10
3.2997
 20
4.211849947383
 30
0.0
 11
3.2997
 21
4.501080716614
 31
0.0
  0
LINE
  5
375
100
AcDbEntity
  8
0
390
4D3
 62
           0
100
AcDbLine
 10
3.550051683177
 20
4.067202537642
 30
0.0
 11
3.299854983213
 21
4.211653669717
 31
0.0
  0
LINE
  5
377
100
AcDbEntity
  8
0
390
4D3
 62
           0
100
AcDbLine
 10
3.7997
 20
4.211849947383
 30
0.0
 11
3.7997
 21
4.500311485844
 31
0.0
  0
LINE
  5
378
100
AcDbEntity
  8
0
390
4D3
 62
           0
100
AcDbLine
 10
3.9747
 20
5.356080716614
 30
0.0
 11
4.1547
 21
5.356080716614
 31
0.0
  0
TEXT
  5
37A
100
AcDbEntity
  8
0
390
4D3
 62
           0
100
AcDbText
 10
4.212051211964
 20
5.306080716614
 30
0.0
 40
0.1
  1
0.50"
100
AcDbText
  0
LINE
  5
37B
100
AcDbEntity
  8
0
390
4D3
 62
           0
100
AcDbLine
 10
7.710235149334
 20
5.697217801867
 30
0.0
 11
7.530235149334
 21
5.697217801867
 31
0.0
  0
LINE
  5
37D
100
AcDbEntity
  8
0
390
4D3
 62
           0
100
AcDbLine
 10
8.515235149334
 20
4.123580716614
 30
0.0
 11
8.515235149334
 21
3.371080716614
 31
0.0
  0
LINE
  5
37E
100
AcDbEntity
  8
0
390
4D3
 62
           0
100
AcDbLine
 10
7.760235149334
 20
4.003580716614
 30
0.0
 11
7.760235149334
 21
3.371080716614
 31
0.0
  0
LINE
  5
37F
100
AcDbEntity
  8
0
390
4D3
 62
           0
100
AcDbLine
 10
8.521010139611
 20
4.05390940962
 30
0.0
 11
9.222717282402
 21
3.494780212177
 31
0.0
  0
LINE
  5
380
100
AcDbEntity
  8
0
390
4D3
 62
           0
100
AcDbLine
 39
0.18
 10
9.610174047368
 20
0.257850793341
 30
0.0
 11
9.610174047368
 21
0.063750793341
 31
0.0
  0
LINE
  5
381
100
AcDbEntity
  8
0
390
4D3
 62
           0
100
AcDbLine
 39
0.11646
 10
9.829458265355
 20
0.257850793341
 30
0.11646
 11
9.829458265355
 21
0.451950793341
 31
0.11646
  0
LINE
  5
382
100
AcDbEntity
  8
0
390
4D3
 62
           0
100
AcDbLine
 39
0.11646
 10
9.829458265355
 20
0.063750793341
 30
0.11646
 11
9.829458265355
 21
0.257850793341
 31
0.11646
  0
LINE
  5
387
100
AcDbEntity
  8
0
390
4D3
 62
           0
100
AcDbLine
 39
0.11646
 10
8.874315528307
 20
0.762510793341
 30
0.11646
 11
11.138815528307
 21
0.762510793341
 31
0.11646
  0
TEXT
  5
389
100
AcDbEntity
  8
0
390
4D3
 62
           0
100
AcDbText
 10
9.06575755132
 20
0.478176663867
 30
0.0
 40
0.06
  1
360 HALF HARD BRASS
100
AcDbText
  0
TEXT
  5
38A
100
AcDbEntity
  8
0
390
4D3
 62
           0
100
AcDbText
 10
9.17575755132
 20
0.808176663867
 30
0.0
 40
0.08
  1
BUSHING 1/4-80 X 0.625
100
AcDbText
  0
LINE
  5
38B
100
AcDbEntity
  8
0
390
4D3
 62
           0
100
AcDbLine
 10
8.874315528307
 20
0.956610793341
 30
0.11646
 11
11.138815528307
 21
0.956610793341
 31
0.11646
  0
TEXT
  5
38C
100
AcDbEntity
  8
0
390
4D3
 62
           0
100
AcDbText
 10
9.855743587935
 20
0.190080876796
 30
0.11646
 40
0.04
  1
SHEET
100
AcDbText
  0
TEXT
  5
38E
100
AcDbEntity
  8
0
390
4D3
 62
           0
100
AcDbText
 10
10.001783377769
 20
0.092865793341
 30
0.11646
 40
0.04529
  1
OF
100
AcDbText
  0
LINE
  5
38F
100
AcDbEntity
  8
0
390
4D3
 62
           0
100
AcDbLine
 10
8.874315528307
 20
0.646050793341
 30
0.11646
 11
11.138815528307
 21
0.646050793341
 31
0.11646
  0
LINE
  5
390
100
AcDbEntity
  8
0
390
4D3
 62
           0
100
AcDbLine
 10
8.874315528307
 20
0.451950793341
 30
0.11646
 11
10.252513049599
 21
0.451950793341
 31
0.11646
  0
LINE
  5
391
100
AcDbEntity
  8
0
390
4D3
 62
           0
100
AcDbLine
 10
8.874315528307
 20
0.257850793341
 30
0.11646
 11
10.252513049599
 21
0.257850793341
 31
0.11646
  0
LINE
  5
392
100
AcDbEntity
  8
0
390
4D3
 62
           0
100
AcDbLine
 10
8.874315528307
 20
0.063750793341
 30
0.11646
 11
10.252513049599
 21
0.063750793341
 31
0.11646
  0
TEXT
  5
393
100
AcDbEntity
  8
0
390
4D3
 62
           0
100
AcDbText
 10
9.851312874348
 20
0.384015793341
 30
0.11646
 40
0.04
  1
APPROVED
100
AcDbText
  0
TEXT
  5
394
100
AcDbEntity
  8
0
390
4D3
 62
           0
100
AcDbText
 10
8.932545528307
 20
0.678400793341
 30
0.11646
 40
0.04529
  1
TOL: X.XXX=+/-0.005 X.XX=+/-0.010 ANGULAR +/-30'
100
AcDbText
  0
TEXT
  5
395
100
AcDbEntity
  8
0
390
4D3
 62
           0
100
AcDbText
 10
9.612717282402
 20
3.444780212177
 30
0.0
 40
0.1
  1
3/8"-40 THREAD
100
AcDbText
  0
LINE
  5
396
100
AcDbEntity
  8
0
390
4D3
 62
           0
100
AcDbLine
 39
0.11646
 10
9.425851786493
 20
-0.165624701407
 30
0.0
 11
9.425851786493
 21
0.449780545967
 31
0.0
  0
TEXT
  5
397
100
AcDbEntity
  8
0
390
4D3
 62
           0
100
AcDbText
 10
8.94575755132
 20
-0.101823336133
 30
0.0
 40
0.06
  1
0241-E01
100
AcDbText
  0
TEXT
  5
398
100
AcDbEntity
  8
0
390
4D3
 62
           0
100
AcDbText
 10
9.60075755132
 20
-0.101823336133
 30
0.0
 40
0.06
  1
N80L7
100
AcDbText
  0
TEXT
  5
399
100
AcDbEntity
  8
0
390
4D3
 62
           0
100
AcDbText
 10
8.93575755132
 20
0.088176663867
 30
0.0
 40
0.06
  1
04/04/96
100
AcDbText
  0
TEXT
  5
39A
100
AcDbEntity
  8
0
390
4D3
 62
           0
100
AcDbText
 10
9.01575755132
 20
0.283176663867
 30
0.0
 40
0.06
  1
BT
100
AcDbText
  0
TEXT
  5
39B
100
AcDbEntity
  8
0
390
4D3
 62
           0
100
AcDbText
 10
9.53075755132
 20
0.283176663867
 30
0.0
 40
0.06
  1
AC
100
AcDbText
  0
TEXT
  5
39C
100
AcDbEntity
  8
0
390
4D3
 62
           0
100
AcDbText
 10
9.4697
 20
0.086080716614
 30
0.0
 40
0.08
  1
C
100
AcDbText
  0
TEXT
  5
39D
100
AcDbEntity
  8
DIM1
390
4D3
100
AcDbText
 10
9.4797
 20
0.068525
 30
0.0
 40
0.08
  1
 
100
AcDbText
  0
TEXT
  5
39E
100
AcDbEntity
  8
0
390
4D3
 62
           0
100
AcDbText
 10
9.699753519062
 20
0.096080716614
 30
0.0
 40
0.05
  1
A
 72
           1
 11
9.716503519062
 21
0.096080716614
 31
0.0
100
AcDbText
  0
TEXT
  5
39F
100
AcDbEntity
  8
0
390
4D3
 62
           0
100
AcDbText
 10
9.649302737048
 20
0.191080716614
 30
0.0
 40
0.04
  1
SIZE
 72
           1
 11
9.716102737048
 21
0.191080716614
 31
0.0
100
AcDbText
  0
TEXT
  5
3A0
100
AcDbEntity
  8
0
390
4D3
 62
           0
100
AcDbText
 10
9.88575755132
 20
0.088176663867
 30
0.0
 40
0.06
  1
1
100
AcDbText
  0
TEXT
  5
3A2
100
AcDbEntity
  8
0
390
4D3
 62
           0
100
AcDbText
 10
8.935780528307
 20
-0.000949206659
 30
0.11646
 40
0.04529
  1
DWG NO.
100
AcDbText
  0
TEXT
  5
3A3
100
AcDbEntity
  8
0
390
4D3
 62
           0
100
AcDbText
 10
8.932545528307
 20
0.574880793341
 30
0.11646
 40
0.04529
  1
MATERIAL
100
AcDbText
  0
TEXT
  5
3A4
100
AcDbEntity
  8
0
390
4D3
 62
           0
100
AcDbText
 10
8.935780528307
 20
0.193150793341
 30
0.11646
 40
0.04
  1
DATE
100
AcDbText
  0
TEXT
  5
3A5
100
AcDbEntity
  8
0
390
4D3
 62
           0
100
AcDbText
 10
8.932545528307
 20
0.384015793341
 30
0.11646
 40
0.04
  1
DRAWN
100
AcDbText
  0
TEXT
  5
3A6
100
AcDbEntity
  8
0
390
4D3
 62
           0
100
AcDbText
 10
8.932545528307
 20
0.888675793341
 30
0.11646
 40
0.04529
  1
TITLE
100
AcDbText
  0
TEXT
  5
3A7
100
AcDbEntity
  8
0
390
4D3
 62
           0
100
AcDbText
 10
9.445785415892
 20
-0.000949206659
 30
0.11646
 40
0.04529
  1
PART NO.
100
AcDbText
  0
TEXT
  5
3A8
100
AcDbEntity
  8
0
390
4D3
 62
           0
100
AcDbText
 10
9.440745415892
 20
0.384015793341
 30
0.11646
 40
0.04
  1
ENGR.
100
AcDbText
  0
TEXT
  5
3A9
100
AcDbEntity
  8
0
390
4D3
 62
           0
100
AcDbText
 10
9.442205415892
 20
0.189915793341
 30
0.11646
 40
0.04
  1
REV
100
AcDbText
  0
TEXT
  5
3AB
100
AcDbEntity
  8
0
390
4D3
 62
           0
100
AcDbText
 10
7.945235149334
 20
3.411080716614
 30
0.0
 40
0.1
  1
0.78"
100
AcDbText
  0
LINE
  5
3AC
100
AcDbEntity
  8
0
390
4D3
 62
           0
100
AcDbLine
 10
8.695235149334
 20
3.461080716614
 30
0.0
 11
8.875235149334
 21
3.461080716614
 31
0.0
  0
LINE
  5
3AD
100
AcDbEntity
  8
0
390
4D3
 62
           0
100
AcDbLine
 10
9.222717282402
 20
3.494780212177
 30
0.0
 11
9.507717282402
 21
3.494780212177
 31
0.0
  0
TEXT
  5
3AE
100
AcDbEntity
  8
0
390
4D3
 62
           0
100
AcDbText
 10
10.42075755132
 20
0.363176663867
 30
0.0
 40
0.06
  1
ENGINEERING
100
AcDbText
  0
TEXT
  5
3AF
100
AcDbEntity
  8
0
390
4D3
 62
           0
100
AcDbText
 10
10.42075755132
 20
0.123176663867
 30
0.0
 40
0.06
  1
DRAWING
100
AcDbText
  0
TEXT
  5
3B0
100
AcDbEntity
  8
0
390
4D3
 62
           0
100
AcDbText
 10
10.42075755132
 20
0.243176663867
 30
0.0
 40
0.06
  1
SUPPORT
100
AcDbText
  0
TEXT
  5
3B1
100
AcDbEntity
  8
0
390
4D3
 62
           0
100
AcDbText
 10
10.13075755132
 20
0.088176663867
 30
0.0
 40
0.06
  1
1
100
AcDbText
  0
LINE
  5
3B2
100
AcDbEntity
  8
0
390
4D3
 62
           0
100
AcDbLine
 10
10.252425528307
 20
0.646050793341
 30
0.11646
 11
10.252425528307
 21
-0.133584206659
 31
0.11646
  0
TEXT
  5
3B3
100
AcDbEntity
  8
0
390
4D3
 62
           0
100
AcDbText
 10
10.281540528307
 20
0.574880793341
 30
0.11646
 40
0.04529
  1
WHERE USED
100
AcDbText
  0
LINE
  5
3D1
100
AcDbEntity
  8
0
390
4D3
 62
           0
100
AcDbLine
 10
9.602822619114
 20
1.165860620069
 30
0.23292
 11
9.564609181614
 21
1.165860620069
 31
0.23292
  0
LINE
  5
3D2
100
AcDbEntity
  8
0
390
4D3
 62
           0
100
AcDbLine
 10
9.564609181614
 20
0.983891870069
 30
0.23292
 11
9.693806994114
 21
0.983891870069
 31
0.23292
  0
LINE
  5
3EF
100
AcDbEntity
  8
0
390
4D3
 62
           0
100
AcDbLine
 10
9.564609181614
 20
1.165860620069
 30
0.23292
 11
9.564609181614
 21
0.983891870069
 31
0.23292
  0
LINE
  5
42E
100
AcDbEntity
  8
0
390
4D3
 62
           0
100
AcDbLine
 10
9.739743739586
 20
1.050310463819
 30
0.23292
 11
9.792535404891
 21
1.050310463819
 31
0.23292
  0
LINE
  5
42F
100
AcDbEntity
  8
0
390
4D3
 62
           0
100
AcDbLine
 10
9.792535404891
 20
1.050310463819
 30
0.23292
 11
9.766139572239
 21
1.135993654433
 31
0.23292
  0
LINE
  5
430
100
AcDbEntity
  8
0
390
4D3
 62
           0
100
AcDbLine
 10
9.602822619114
 20
1.014826557569
 30
0.23292
 11
9.602822619114
 21
1.165860620069
 31
0.23292
  0
LINE
  5
431
100
AcDbEntity
  8
0
390
4D3
 62
           0
100
AcDbLine
 10
9.692050995676
 20
1.014826557569
 30
0.23292
 11
9.602822619114
 21
1.014826557569
 31
0.23292
  0
LINE
  5
432
100
AcDbEntity
  8
0
390
4D3
 62
           0
100
AcDbLine
 10
9.766139572239
 20
1.135993654433
 30
0.23292
 11
9.739743739586
 21
1.050310463819
 31
0.23292
  0
ARC
  5
433
100
AcDbEntity
  8
0
390
4D3
 62
           0
100
AcDbCircle
 10
9.949269920737
 20
1.119964259924
 30
0.23292
 40
0.040957331997
100
AcDbArc
 50
358.6532608214
 51
58.670205836282
  0
LINE
  5
434
100
AcDbEntity
  8
0
390
4D3
 62
           0
100
AcDbLine
 10
9.846641177581
 20
1.165860620069
 30
0.23292
 11
9.846641177581
 21
0.996761687765
 31
0.23292
  0
LINE
  5
435
100
AcDbEntity
  8
0
390
4D3
 62
           0
100
AcDbLine
 10
9.846641177581
 20
0.983891870069
 30
0.23292
 11
9.934896021331
 21
0.983891870069
 31
0.23292
  0
LINE
  5
436
100
AcDbEntity
  8
0
390
4D3
 62
           0
100
AcDbLine
 10
9.929048380741
 20
1.138565307569
 30
0.23292
 11
9.883034927581
 21
1.138565307569
 31
0.23292
  0
LINE
  5
437
100
AcDbEntity
  8
0
390
4D3
 62
           0
100
AcDbLine
 10
9.883034927581
 20
1.093073120069
 30
0.23292
 11
9.929048382659
 21
1.093073120069
 31
0.23292
  0
LINE
  5
438
100
AcDbEntity
  8
0
390
4D3
 62
           0
100
AcDbLine
 10
9.883034927581
 20
1.012097026319
 30
0.23292
 11
9.926707427581
 21
1.012097026319
 31
0.23292
  0
LINE
  5
439
100
AcDbEntity
  8
0
390
4D3
 62
           0
100
AcDbLine
 10
9.931399519231
 20
1.064867963819
 30
0.23292
 11
9.883034927581
 21
1.064867963819
 31
0.23292
  0
LINE
  5
43F
100
AcDbEntity
  8
0
390
4D3
 62
           0
100
AcDbLine
 10
9.883034927581
 20
1.138565307569
 30
0.23292
 11
9.883034927581
 21
1.093073120069
 31
0.23292
  0
LINE
  5
440
100
AcDbEntity
  8
0
390
4D3
 62
           0
100
AcDbLine
 10
9.883034927581
 20
1.064867963819
 30
0.23292
 11
9.883034927581
 21
1.012097026319
 31
0.23292
  0
ARC
  5
441
100
AcDbEntity
  8
0
390
4D3
 62
           0
100
AcDbCircle
 10
9.949006268611
 20
1.033876920219
 30
0.23292
 40
0.046538473821
100
AcDbArc
 50
5.7976668128
 51
41.821431110538
  0
ARC
  5
442
100
AcDbEntity
  8
0
390
4D3
 62
           0
100
AcDbCircle
 10
9.955490337718
 20
1.119818021886
 30
0.23292
 40
0.034735196272
100
AcDbArc
 50
313.157562911561
 51
358.653260821402
  0
ARC
  5
443
100
AcDbEntity
  8
0
390
4D3
 62
           0
100
AcDbCircle
 10
9.928527115081
 20
1.148573588819
 30
0.23292
 40
0.074154709264
100
AcDbArc
 50
295.378395342111
 51
313.157562911558
  0
ARC
  5
444
100
AcDbEntity
  8
0
390
4D3
 62
           0
100
AcDbCircle
 10
9.93500740265
 20
1.021351064242
 30
0.23292
 40
0.065323183459
100
AcDbArc
 50
41.821431110537
 51
67.211169878313
  0
ARC
  5
445
100
AcDbEntity
  8
0
390
4D3
 62
           0
100
AcDbCircle
 10
9.949006268611
 20
1.033876920219
 30
0.23292
 40
0.046538473821
100
AcDbArc
 50
297.452647876123
 51
341.33231151504
  0
ARC
  5
446
100
AcDbEntity
  8
0
390
4D3
 62
           0
100
AcDbCircle
 10
9.934896021331
 20
1.061037234105
 30
0.23292
 40
0.077145364036
100
AcDbArc
 50
269.999999999995
 51
297.452647876118
  0
ARC
  5
447
100
AcDbEntity
  8
0
390
4D3
 62
           0
100
AcDbCircle
 10
9.929048382659
 20
1.115819213819
 30
0.23292
 40
0.02274609375
100
AcDbArc
 50
270.0
 51
90.000004829675
  0
ARC
  5
448
100
AcDbEntity
  8
0
390
4D3
 62
           0
100
AcDbCircle
 10
9.926707427581
 20
1.044403777144
 30
0.23292
 40
0.032306750825
100
AcDbArc
 50
270.0
 51
313.227508124747
  0
ARC
  5
449
100
AcDbEntity
  8
0
390
4D3
 62
           0
100
AcDbCircle
 10
9.931399519231
 20
1.039412011843
 30
0.23292
 40
0.025455951976
100
AcDbArc
 50
313.227508124747
 51
89.999999999999
  0
LINE
  5
44A
100
AcDbEntity
  8
0
390
4D3
 62
           0
100
AcDbLine
 10
9.931657353963
 20
1.165860620069
 30
0.23292
 11
9.846641177581
 21
1.165860620069
 31
0.23292
  0
ARC
  5
44B
100
AcDbEntity
  8
0
390
4D3
 62
           0
100
AcDbCircle
 10
9.931657353963
 20
1.091030580992
 30
0.23292
 40
0.074830039076
100
AcDbArc
 50
58.670205836284
 51
90.000000000001
  0
TEXT
  5
44C
100
AcDbEntity
  8
0
390
4D3
 62
           0
100
AcDbText
 10
10.354795394672
 20
0.979039370069
 30
0.23292
 40
0.0727875
  1
NEWTON NJ
100
AcDbText
  0
TEXT
  5
44D
100
AcDbEntity
  8
0
390
4D3
 62
           0
100
AcDbText
 10
10.354795394672
 20
1.100351870069
 30
0.23292
 40
0.0727875
  1
PO BOX 366
100
AcDbText
  0
LINE
  5
47D
100
AcDbEntity
  8
0
390
4D3
 62
           0
100
AcDbLine
 10
8.515235149334
 20
4.588580716614
 30
0.0
 11
8.515235149334
 21
5.787217801867
 31
0.0
  0
LINE
  5
47E
100
AcDbEntity
  8
0
390
4D3
 62
           0
100
AcDbLine
 10
7.890235149334
 20
4.708580716614
 30
0.0
 11
7.890235149334
 21
5.217321961268
 31
0.0
  0
TEXT
  5
47F
100
AcDbEntity
  8
0
390
4D3
 62
           0
100
AcDbText
 10
8.920235149334
 20
5.211080716614
 30
0.0
 40
0.1
  1
0.31"
100
AcDbText
  0
LINE
  5
482
100
AcDbEntity
  8
0
390
4D3
 62
           0
100
AcDbLine
 10
8.215235149334
 20
4.608580716614
 30
0.0
 11
8.215235149334
 21
5.351080716614
 31
0.0
  0
LINE
  5
483
100
AcDbEntity
  8
0
390
4D3
 62
           0
100
AcDbLine
 10
8.515235149334
 20
4.588580716614
 30
0.0
 11
8.515235149334
 21
5.351080716614
 31
0.0
  0
ARC
  5
484
100
AcDbEntity
  8
0
390
4D3
 62
           0
100
AcDbCircle
 10
7.881485149334
 20
4.573580716614
 30
0.0
 40
0.141272122161
100
AcDbArc
 50
149.12318692094
 51
210.87681307906
  0
LINE
  5
485
100
AcDbEntity
  8
0
390
4D3
 62
           0
100
AcDbLine
 10
7.890235149334
 20
4.646080716614
 30
0.0
 11
7.890235149334
 21
4.066080716614
 31
0.0
  0
LINE
  5
486
100
AcDbEntity
  8
0
390
4D3
 62
           0
100
AcDbLine
 10
8.495235149334
 20
4.546080716614
 30
0.0
 11
8.381860621199
 21
4.546080716614
 31
0.0
  0
LINE
  5
487
100
AcDbEntity
  8
0
390
4D3
 62
           0
100
AcDbLine
 10
7.890235149334
 20
4.166080716614
 30
0.0
 11
8.231860621199
 21
4.166080716614
 31
0.0
  0
LINE
  5
488
100
AcDbEntity
  8
0
390
4D3
 62
           0
100
AcDbLine
 10
7.740235149334
 20
4.131080716614
 30
0.0
 11
7.740235149334
 21
4.576080716614
 31
0.0
  0
ARC
  5
489
100
AcDbEntity
  8
0
390
4D3
 62
           0
100
AcDbCircle
 10
8.275860149334
 20
4.356080716614
 30
0.0
 40
0.535625
100
AcDbArc
 50
164.293373396044
 51
195.706626603956
  0
ARC
  5
48A
100
AcDbEntity
  8
0
390
4D3
 62
           0
100
AcDbCircle
 10
7.881485149334
 20
4.138580716614
 30
0.0
 40
0.141272122161
100
AcDbArc
 50
149.12318692094
 51
210.87681307906
  0
LINE
  5
48B
100
AcDbEntity
  8
0
390
4D3
 62
           0
100
AcDbLine
 10
7.890235149334
 20
4.066080716614
 30
0.0
 11
7.760235149334
 21
4.066080716614
 31
0.0
  0
LINE
  5
48C
100
AcDbEntity
  8
0
390
4D3
 62
           0
100
AcDbLine
 10
7.740235149334
 20
4.211080716614
 30
0.0
 11
7.890235149334
 21
4.211080716614
 31
0.0
  0
LINE
  5
48D
100
AcDbEntity
  8
0
390
4D3
 62
           0
100
AcDbLine
 10
7.890235149334
 20
4.501080716614
 30
0.0
 11
7.740235149334
 21
4.501080716614
 31
0.0
  0
LINE
  5
48F
100
AcDbEntity
  8
0
390
4D3
 62
           0
100
AcDbLine
 10
8.215235149334
 20
4.166080716614
 30
0.0
 11
8.215235149334
 21
4.546080716614
 31
0.0
  0
LINE
  5
495
100
AcDbEntity
  8
0
390
4D3
 62
           0
100
AcDbLine
 10
8.390235149334
 20
4.236080716614
 30
0.0
 11
8.390235149334
 21
4.476080716614
 31
0.0
  0
LINE
  5
496
100
AcDbEntity
  8
0
390
4D3
 62
           0
100
AcDbLine
 10
8.415235149334
 20
4.166080716614
 30
0.0
 11
8.415235149334
 21
4.546080716614
 31
0.0
  0
LINE
  5
497
100
AcDbEntity
  8
0
390
4D3
 62
           0
100
AcDbLine
 10
8.440235149334
 20
4.236080716614
 30
0.0
 11
8.440235149334
 21
4.476080716614
 31
0.0
  0
LINE
  5
498
100
AcDbEntity
  8
0
390
4D3
 62
           0
100
AcDbLine
 10
8.465235149334
 20
4.166080716614
 30
0.0
 11
8.465235149334
 21
4.546080716614
 31
0.0
  0
LINE
  5
499
100
AcDbEntity
  8
0
390
4D3
 62
           0
100
AcDbLine
 10
8.490235149334
 20
4.236080716614
 30
0.0
 11
8.490235149334
 21
4.476080716614
 31
0.0
  0
LINE
  5
49A
100
AcDbEntity
  8
0
390
4D3
 62
           0
100
AcDbLine
 10
8.515235149334
 20
4.186080716614
 30
0.0
 11
8.515235149334
 21
4.526080716614
 31
0.0
  0
LINE
  5
49C
100
AcDbEntity
  8
0
390
4D3
 62
           0
100
AcDbLine
 10
8.515235149334
 20
4.186080716614
 30
0.0
 11
8.495235149334
 21
4.166080716614
 31
0.0
  0
LINE
  5
49D
100
AcDbEntity
  8
0
390
4D3
 62
           0
100
AcDbLine
 10
8.495235149334
 20
4.546080716614
 30
0.0
 11
8.515235149334
 21
4.526080716614
 31
0.0
  0
LINE
  5
49E
100
AcDbEntity
  8
0
390
4D3
 62
           0
100
AcDbLine
 10
7.760235149334
 20
4.646080716614
 30
0.0
 11
7.890235149334
 21
4.646080716614
 31
0.0
  0
LINE
  5
49F
100
AcDbEntity
  8
0
390
4D3
 62
           0
100
AcDbLine
 10
8.035235149334
 20
5.261080716614
 30
0.0
 11
7.890235149334
 21
5.261080716614
 31
0.0
  0
LINE
  5
4A0
100
AcDbEntity
  8
0
390
4D3
 62
           0
100
AcDbLine
 10
8.695235149334
 20
5.261080716614
 30
0.0
 11
8.875235149334
 21
5.261080716614
 31
0.0
  0
TEXT
  5
4A2
100
AcDbEntity
  8
0
390
4D3
 62
           0
100
AcDbText
 10
8.010235149334
 20
5.647217801867
 30
0.0
 40
0.1
  1
0.63"
100
AcDbText
  0
LINE
  5
4A3
100
AcDbEntity
  8
0
390
4D3
 62
           0
100
AcDbLine
 10
8.695235149334
 20
5.697217801867
 30
0.0
 11
8.875235149334
 21
5.697217801867
 31
0.0
  0
TEXT
  5
4A9
100
AcDbEntity
  8
0
390
4D3
 62
           0
100
AcDbText
 10
9.92877543296
 20
0.283176663867
 30
0.0
 40
0.06
  1
AC
100
AcDbText
  0
CIRCLE
  5
4B6
100
AcDbEntity
  8
0
390
4D3
 62
           0
100
AcDbCircle
 10
7.815235149334
 20
4.356080716614
 30
0.0
 40
0.031
  0
CIRCLE
  5
4B7
100
AcDbEntity
  8
0
390
4D3
  6
HIDDEN
 62
           0
100
AcDbCircle
 10
7.815235149334
 20
4.356080716614
 30
0.0
 40
0.043
  0
LINE
  5
4CB
100
AcDbEntity
  8
0
390
4D3
 62
           0
100
AcDbLine
 10
7.656074980293
 20
4.512276237007
 30
0.0
 11
7.358257368364
 21
4.804546452337
 31
0.0
  0
LINE
  5
4CC
100
AcDbEntity
  8
0
390
4D3
 62
           0
100
AcDbLine
 10
7.358257368364
 20
4.804546452337
 30
0.0
 11
7.178257368364
 21
4.804546452337
 31
0.0
  0
MTEXT
  5
4CE
100
AcDbEntity
  8
0
390
4D3
 62
           0
100
AcDbMText
 10
7.145072469003
 20
4.972067052394
 30
0.0
 40
0.08
 41
0.0
 71
           3
 72
           1
  1
#2-56 MOUNTING HOLE \PFOR USE WITH NYLON-TIPPED SET SCREW\PTO LOCK ADJUSTER SCREW IN PLACE
 73
           1
 44
1.0
  0
LINE
  5
4CF
100
AcDbEntity
  8
0
390
4D3
 62
           0
100
AcDbLine
 10
7.725235149334
 20
4.356080716614
 30
0.0
 11
7.905235149334
 21
4.356080716614
 31
0.0
  0
LINE
  5
4D0
100
AcDbEntity
  8
0
390
4D3
 62
           0
100
AcDbLine
 10
7.815235149334
 20
4.266080716614
 30
0.0
 11
7.815235149334
 21
4.446080716614
 31
0.0
  0
ARC
  5
504
100
AcDbEntity
  8
0
 62
           0
100
AcDbCircle
 10
8.373110621199
 20
4.138580716614
 30
0.0
 40
0.141272122161
100
AcDbArc
 50
149.12318692094
 51
210.87681307906
  0
LINE
  5
505
100
AcDbEntity
  8
0
 62
           0
100
AcDbLine
 10
8.361860480856
 20
4.066080716614
 30
0.0
 11
8.251860621199
 21
4.066080716614
 31
0.0
  0
ARC
  5
506
100
AcDbEntity
  8
0
 62
           0
100
AcDbCircle
 10
8.240610480856
 20
4.138580716614
 30
0.0
 40
0.141272122161
100
AcDbArc
 50
329.12318692094
 51
30.87681307906
  0
LINE
  5
507
100
AcDbEntity
  8
0
 62
           0
100
AcDbLine
 10
8.251860621199
 20
4.211080716614
 30
0.0
 11
8.381860621199
 21
4.211080716614
 31
0.0
  0
LINE
  5
508
100
AcDbEntity
  8
0
 62
           0
100
AcDbLine
 10
8.381860621199
 20
4.133580716614
 30
0.0
 11
8.381860621199
 21
4.578580716614
 31
0.0
  0
ARC
  5
509
100
AcDbEntity
  8
0
 62
           0
100
AcDbCircle
 10
7.846235480856
 20
4.356080716614
 30
0.0
 40
0.535625
100
AcDbArc
 50
344.293373396044
 51
15.706626603956
  0
ARC
  5
50A
100
AcDbEntity
  8
0
 62
           0
100
AcDbCircle
 10
8.767485621199
 20
4.356080716614
 30
0.0
 40
0.535625
100
AcDbArc
 50
164.293373396044
 51
195.706626603956
  0
LINE
  5
50B
100
AcDbEntity
  8
0
 62
           0
100
AcDbLine
 10
8.231860621199
 20
4.131080716614
 30
0.0
 11
8.231860621199
 21
4.576080716614
 31
0.0
  0
ARC
  5
50C
100
AcDbEntity
  8
0
 62
           0
100
AcDbCircle
 10
8.240610480856
 20
4.573580716614
 30
0.0
 40
0.141272122161
100
AcDbArc
 50
329.12318692094
 51
30.87681307906
  0
LINE
  5
50D
100
AcDbEntity
  8
0
 62
           0
100
AcDbLine
 10
8.381860621199
 20
4.501080716614
 30
0.0
 11
8.251860621199
 21
4.501080716614
 31
0.0
  0
ARC
  5
50E
100
AcDbEntity
  8
0
 62
           0
100
AcDbCircle
 10
8.373110621199
 20
4.573580716614
 30
0.0
 40
0.141272122161
100
AcDbArc
 50
149.12318692094
 51
210.87681307906
  0
LINE
  5
50F
100
AcDbEntity
  8
0
 62
           0
100
AcDbLine
 10
8.251860621199
 20
4.646080716614
 30
0.0
 11
8.361860480856
 21
4.646080716614
 31
0.0
  0
LINE
  5
510
100
AcDbEntity
  8
0
 62
           0
100
AcDbLine
 10
8.231860621199
 20
4.546080716614
 30
0.0
 11
7.890235149334
 21
4.546080716614
 31
0.0
  0
LINE
  5
511
100
AcDbEntity
  8
0
 62
           0
100
AcDbLine
 10
8.381860621199
 20
4.166080716614
 30
0.0
 11
8.495235149334
 21
4.166080716614
 31
0.0
  0
TEXT
  5
512
100
AcDbEntity
  8
0
 62
           0
100
AcDbText
 10
4.212051211964
 20
5.180982135792
 30
0.0
 40
0.1
  1
(13mm)
100
AcDbText
  0
LINE
  5
513
100
AcDbEntity
  8
0
 62
           0
100
AcDbLine
 10
7.890235149334
 20
5.299521189403
 30
0.0
 11
7.890235149334
 21
5.787217801867
 31
0.0
  0
TEXT
  5
514
100
AcDbEntity
  8
0
 62
           0
100
AcDbText
 10
7.950473619518
 20
5.514414402276
 30
0.0
 40
0.1
  1
(16mm)
100
AcDbText
  0
TEXT
  5
515
100
AcDbEntity
  8
0
 62
           0
100
AcDbText
 10
8.920235149334
 20
5.084917487002
 30
0.0
 40
0.1
  1
(8mm)
100
AcDbText
  0
TEXT
  5
516
100
AcDbEntity
  8
0
 62
           0
100
AcDbText
 10
7.872088336426
 20
3.286484182805
 30
0.0
 40
0.1
  1
(20mm)
100
AcDbText
  0
LINE
  5
517
100
AcDbEntity
  8
0
370
           0
 62
           0
100
AcDbLine
 10
1.1944
 20
-0.1506
 30
0.0
 11
1.1944
 21
-0.18295
 31
0.0
  0
LINE
  5
518
100
AcDbEntity
  8
BORDER
370
           0
100
AcDbLine
 10
11.1582
 20
-0.1506
 30
0.0
 11
11.1582
 21
-0.18295
 31
0.0
  0
LINE
  5
519
100
AcDbEntity
  8
0
370
           0
 62
           0
100
AcDbLine
 10
1.1944
 20
-0.165394283386
 30
0.0
 11
11.1582
 21
-0.165394283386
 31
0.0
  0
LINE
  5
51A
100
AcDbEntity
  8
0
370
           0
 62
           0
100
AcDbLine
 10
1.1944
 20
-0.133044283386
 30
0.0
 11
11.1582
 21
-0.133044283386
 31
0.0
  0
LINE
  5
51B
100
AcDbEntity
  8
BORDER
370
           0
100
AcDbLine
 10
1.178225
 20
7.25901
 30
0.0
 11
1.210575
 21
7.22666
 31
0.0
  0
LINE
  5
51C
100
AcDbEntity
  8
0
370
           0
 62
           0
100
AcDbLine
 10
11.174375
 20
7.276565716614
 30
0.0
 11
11.142025
 21
7.244215716614
 31
0.0
  0
LINE
  5
51D
100
AcDbEntity
  8
0
370
           0
 62
           0
100
AcDbLine
 10
1.210575
 20
7.244215716614
 30
0.0
 11
11.142025
 21
7.244215716614
 31
0.0
  0
LINE
  5
51E
100
AcDbEntity
  8
0
370
           0
 62
           0
100
AcDbLine
 10
1.178225
 20
7.276565716614
 30
0.0
 11
11.174375
 21
7.276565716614
 31
0.0
  0
LINE
  5
51F
100
AcDbEntity
  8
0
370
           0
 62
           0
100
AcDbLine
 10
7.580235149334
 20
3.431080716614
 30
0.0
 11
7.580235149334
 21
3.491080716614
 31
0.0
  0
LINE
  5
520
100
AcDbEntity
  8
0
370
           0
 62
           0
100
AcDbLine
 10
7.580235149334
 20
3.491080716614
 30
0.0
 11
7.760235149334
 21
3.461080716614
 31
0.0
  0
LINE
  5
521
100
AcDbEntity
  8
0
370
           0
 62
           0
100
AcDbLine
 10
7.580235149334
 20
3.431080716614
 30
0.0
 11
7.760235149334
 21
3.461080716614
 31
0.0
  0
LINE
  5
522
100
AcDbEntity
  8
0
370
           0
 62
           0
100
AcDbLine
 10
7.710235149334
 20
5.667217801867
 30
0.0
 11
7.710235149334
 21
5.727217801867
 31
0.0
  0
LINE
  5
523
100
AcDbEntity
  8
0
370
           0
 62
           0
100
AcDbLine
 10
7.710235149334
 20
5.727217801867
 30
0.0
 11
7.890235149334
 21
5.697217801867
 31
0.0
  0
LINE
  5
524
100
AcDbEntity
  8
0
370
           0
 62
           0
100
AcDbLine
 10
7.710235149334
 20
5.667217801867
 30
0.0
 11
7.890235149334
 21
5.697217801867
 31
0.0
  0
LINE
  5
525
100
AcDbEntity
  8
0
370
           0
 62
           0
100
AcDbLine
 10
1.178225
 20
-0.166775
 30
0.0
 11
1.210575
 21
-0.166775
 31
0.0
  0
LINE
  5
526
100
AcDbEntity
  8
BORDER
370
           0
100
AcDbLine
 10
1.178225
 20
7.25901
 30
0.0
 11
1.210575
 21
7.22666
 31
0.0
  0
LINE
  5
527
100
AcDbEntity
  8
0
370
           0
 62
           0
100
AcDbLine
 10
1.210575
 20
-0.166775
 30
0.0
 11
1.210575
 21
7.22666
 31
0.0
  0
LINE
  5
528
100
AcDbEntity
  8
0
370
           0
 62
           0
100
AcDbLine
 10
1.178225
 20
-0.149219283386
 30
0.0
 11
1.178225
 21
7.276565716614
 31
0.0
  0
LINE
  5
529
100
AcDbEntity
  8
0
370
           0
 62
           0
100
AcDbLine
 10
3.1197
 20
5.326080716614
 30
0.0
 11
3.1197
 21
5.386080716614
 31
0.0
  0
LINE
  5
52A
100
AcDbEntity
  8
0
370
           0
 62
           0
100
AcDbLine
 10
3.1197
 20
5.386080716614
 30
0.0
 11
3.2997
 21
5.356080716614
 31
0.0
  0
LINE
  5
52B
100
AcDbEntity
  8
0
370
           0
 62
           0
100
AcDbLine
 10
3.1197
 20
5.326080716614
 30
0.0
 11
3.2997
 21
5.356080716614
 31
0.0
  0
LINE
  5
52C
100
AcDbEntity
  8
0
370
           0
 62
           0
100
AcDbLine
 10
3.37872659926
 20
4.100727294301
 30
0.0
 11
3.434064323411
 21
4.077538152752
 31
0.0
  0
LINE
  5
52D
100
AcDbEntity
  8
0
370
           0
 62
           0
100
AcDbLine
 10
3.434064323411
 20
4.077538152752
 30
0.0
 11
3.475962885983
 21
4.255145895979
 31
0.0
  0
LINE
  5
52E
100
AcDbEntity
  8
0
370
           0
 62
           0
100
AcDbLine
 10
3.37872659926
 20
4.100727294301
 30
0.0
 11
3.475962885983
 21
4.255145895979
 31
0.0
  0
LINE
  5
52F
100
AcDbEntity
  8
0
370
           0
 62
           0
100
AcDbLine
 10
3.9747
 20
5.326080716614
 30
0.0
 11
3.9747
 21
5.386080716614
 31
0.0
  0
LINE
  5
530
100
AcDbEntity
  8
0
370
           0
 62
           0
100
AcDbLine
 10
3.9747
 20
5.386080716614
 30
0.0
 11
3.7947
 21
5.356080716614
 31
0.0
  0
LINE
  5
531
100
AcDbEntity
  8
0
370
           0
 62
           0
100
AcDbLine
 10
3.9747
 20
5.326080716614
 30
0.0
 11
3.7947
 21
5.356080716614
 31
0.0
  0
LINE
  5
532
100
AcDbEntity
  8
0
370
           0
 62
           0
100
AcDbLine
 10
11.174375
 20
7.276565716614
 30
0.0
 11
11.142025
 21
7.244215716614
 31
0.0
  0
LINE
  5
533
100
AcDbEntity
  8
BORDER
370
           0
100
AcDbLine
 10
11.174375
 20
-0.166775
 30
0.0
 11
11.142025
 21
-0.166775
 31
0.0
  0
LINE
  5
534
100
AcDbEntity
  8
0
370
           0
 62
           0
100
AcDbLine
 10
11.142025
 20
7.244215716614
 30
0.0
 11
11.142025
 21
-0.149219283386
 31
0.0
  0
LINE
  5
535
100
AcDbEntity
  8
0
370
           0
 62
           0
100
AcDbLine
 10
11.174375
 20
7.276565716614
 30
0.0
 11
11.174375
 21
-0.149219283386
 31
0.0
  0
LINE
  5
536
100
AcDbEntity
  8
BORDER
370
           0
100
AcDbLine
 39
0.11646
 10
10.245955528307
 20
-0.147904923272
 30
0.11646
 11
10.258895528307
 21
-0.147904923272
 31
0.11646
  0
LINE
  5
537
100
AcDbEntity
  8
0
370
           0
 62
           0
100
AcDbLine
 39
0.11646
 10
10.245955528307
 20
0.652520793341
 30
0.11646
 11
10.258895528307
 21
0.639580793341
 31
0.11646
  0
LINE
  5
538
100
AcDbEntity
  8
0
370
           0
 62
           0
100
AcDbLine
 39
0.11646
 10
10.258895528307
 20
-0.130349206659
 30
0.11646
 11
10.258895528307
 21
0.639580793341
 31
0.11646
  0
LINE
  5
539
100
AcDbEntity
  8
0
370
           0
 62
           0
100
AcDbLine
 39
0.11646
 10
10.245955528307
 20
-0.130349206659
 30
0.11646
 11
10.245955528307
 21
0.652520793341
 31
0.11646
  0
LINE
  5
53A
100
AcDbEntity
  8
0
370
           0
 62
           0
100
AcDbLine
 39
0.11646
 10
10.245955528307
 20
0.652520793341
 30
0.11646
 11
10.258895528307
 21
0.639580793341
 31
0.11646
  0
LINE
  5
53B
100
AcDbEntity
  8
0
370
           0
 62
           0
100
AcDbLine
 39
0.11646
 10
11.138815528307
 20
0.652520793341
 30
0.11646
 11
11.138815528307
 21
0.639580793341
 31
0.11646
  0
LINE
  5
53C
100
AcDbEntity
  8
0
370
           0
 62
           0
100
AcDbLine
 39
0.11646
 10
10.258895528307
 20
0.639580793341
 30
0.11646
 11
11.138815528307
 21
0.639580793341
 31
0.11646
  0
LINE
  5
53D
100
AcDbEntity
  8
0
370
           0
 62
           0
100
AcDbLine
 39
0.11646
 10
10.245955528307
 20
0.652520793341
 30
0.11646
 11
11.138815528307
 21
0.652520793341
 31
0.11646
  0
LINE
  5
53E
100
AcDbEntity
  8
0
370
           0
 62
           0
100
AcDbLine
 39
0.11646
 10
10.252425528307
 20
0.639580793341
 30
0.11646
 11
10.252425528307
 21
0.652520793341
 31
0.11646
  0
LINE
  5
53F
100
AcDbEntity
  8
0
370
           0
 62
           0
100
AcDbLine
 39
0.11646
 10
8.874315528307
 20
0.639580793341
 30
0.11646
 11
8.874315528307
 21
0.652520793341
 31
0.11646
  0
LINE
  5
540
100
AcDbEntity
  8
0
370
           0
 62
           0
100
AcDbLine
 39
0.11646
 10
10.252425528307
 20
0.652520793341
 30
0.11646
 11
8.874315528307
 21
0.652520793341
 31
0.11646
  0
LINE
  5
541
100
AcDbEntity
  8
0
370
           0
 62
           0
100
AcDbLine
 39
0.11646
 10
10.252425528307
 20
0.639580793341
 30
0.11646
 11
8.874315528307
 21
0.639580793341
 31
0.11646
  0
LINE
  5
542
100
AcDbEntity
  8
0
370
           0
 62
           0
100
AcDbLine
 39
0.11646
 10
11.138815528307
 20
0.950140793341
 30
0.11646
 11
11.138815528307
 21
0.963080793341
 31
0.11646
  0
LINE
  5
543
100
AcDbEntity
  8
0
370
           0
 62
           0
100
AcDbLine
 39
0.11646
 10
8.877550528307
 20
0.950140793341
 30
0.11646
 11
8.877550528307
 21
0.963080793341
 31
0.11646
  0
LINE
  5
544
100
AcDbEntity
  8
0
370
           0
 62
           0
100
AcDbLine
 39
0.11646
 10
11.138815528307
 20
0.963080793341
 30
0.11646
 11
8.877550528307
 21
0.963080793341
 31
0.11646
  0
LINE
  5
545
100
AcDbEntity
  8
0
370
           0
 62
           0
100
AcDbLine
 39
0.11646
 10
11.138815528307
 20
0.950140793341
 30
0.11646
 11
8.877550528307
 21
0.950140793341
 31
0.11646
  0
LINE
  5
546
100
AcDbEntity
  8
0
370
           0
 62
           0
100
AcDbLine
 39
0.11646
 10
8.877550528307
 20
0.768980793341
 30
0.11646
 11
8.877550528307
 21
0.756040793341
 31
0.11646
  0
LINE
  5
547
100
AcDbEntity
  8
0
370
           0
 62
           0
100
AcDbLine
 39
0.11646
 10
11.138815528307
 20
0.768980793341
 30
0.11646
 11
11.138815528307
 21
0.756040793341
 31
0.11646
  0
LINE
  5
548
100
AcDbEntity
  8
0
370
           0
 62
           0
100
AcDbLine
 39
0.11646
 10
8.877550528307
 20
0.756040793341
 30
0.11646
 11
11.138815528307
 21
0.756040793341
 31
0.11646
  0
LINE
  5
549
100
AcDbEntity
  8
0
370
           0
 62
           0
100
AcDbLine
 39
0.11646
 10
8.877550528307
 20
0.768980793341
 30
0.11646
 11
11.138815528307
 21
0.768980793341
 31
0.11646
  0
LINE
  5
54A
100
AcDbEntity
  8
0
370
           0
 62
           0
100
AcDbLine
 10
11.138815528307
 20
1.199235793341
 30
0.11646
 11
11.138815528307
 21
1.231585793341
 31
0.11646
  0
LINE
  5
54B
100
AcDbEntity
  8
0
370
           0
 62
           0
100
AcDbLine
 10
8.890490528307
 20
1.199235793341
 30
0.11646
 11
8.858140528307
 21
1.231585793341
 31
0.11646
  0
LINE
  5
54C
100
AcDbEntity
  8
0
370
           0
 62
           0
100
AcDbLine
 10
11.138815528307
 20
1.231585793341
 30
0.11646
 11
8.858140528307
 21
1.231585793341
 31
0.11646
  0
LINE
  5
54D
100
AcDbEntity
  8
0
370
           0
 62
           0
100
AcDbLine
 10
11.138815528307
 20
1.199235793341
 30
0.11646
 11
8.890490528307
 21
1.199235793341
 31
0.11646
  0
LINE
  5
54E
100
AcDbEntity
  8
0
370
           0
 62
           0
100
AcDbLine
 10
8.890490528307
 20
1.199235793341
 30
0.11646
 11
8.858140528307
 21
1.231585793341
 31
0.11646
  0
LINE
  5
54F
100
AcDbEntity
  8
BORDER
370
           0
100
AcDbLine
 10
8.890490528307
 20
-0.147904923272
 30
0.11646
 11
8.858140528307
 21
-0.147904923272
 31
0.11646
  0
LINE
  5
550
100
AcDbEntity
  8
0
370
           0
 62
           0
100
AcDbLine
 10
8.858140528307
 20
1.231585793341
 30
0.11646
 11
8.858140528307
 21
-0.130349206659
 31
0.11646
  0
LINE
  5
551
100
AcDbEntity
  8
0
370
           0
 62
           0
100
AcDbLine
 10
8.890490528307
 20
1.199235793341
 30
0.11646
 11
8.890490528307
 21
-0.130349206659
 31
0.11646
  0
LINE
  5
552
100
AcDbEntity
  8
0
370
           0
 62
           0
100
AcDbLine
 10
8.695235149334
 20
3.431080716614
 30
0.0
 11
8.695235149334
 21
3.491080716614
 31
0.0
  0
LINE
  5
553
100
AcDbEntity
  8
0
370
           0
 62
           0
100
AcDbLine
 10
8.695235149334
 20
3.491080716614
 30
0.0
 11
8.515235149334
 21
3.461080716614
 31
0.0
  0
LINE
  5
554
100
AcDbEntity
  8
0
370
           0
 62
           0
100
AcDbLine
 10
8.695235149334
 20
3.431080716614
 30
0.0
 11
8.515235149334
 21
3.461080716614
 31
0.0
  0
LINE
  5
555
100
AcDbEntity
  8
0
370
           0
 62
           0
100
AcDbLine
 10
9.99530668991
 20
1.038578040628
 30
0.23292
 11
10.024484370155
 21
1.038578040628
 31
0.23292
  0
ARC
  5
556
100
AcDbEntity
  8
0
370
           0
 62
           0
100
AcDbCircle
 10
10.054492136233
 20
1.038868180874
 30
0.23292
 40
0.030009168705
100
AcDbArc
 50
180.553966380535
 51
247.780490246929
  0
ARC
  5
557
100
AcDbEntity
  8
0
370
           0
 62
           0
100
AcDbCircle
 10
10.062387032725
 20
1.058195219544
 30
0.23292
 40
0.050886520414
100
AcDbArc
 50
247.78049024693
 51
307.228618635173
  0
ARC
  5
558
100
AcDbEntity
  8
0
370
           0
 62
           0
100
AcDbCircle
 10
10.080312749815
 20
1.034603437776
 30
0.23292
 40
0.021257084035
100
AcDbArc
 50
307.228618635167
 51
76.989828230346
  0
ARC
  5
559
100
AcDbEntity
  8
0
370
           0
 62
           0
100
AcDbCircle
 10
13.737443534213
 20
16.862556713666
 30
0.23292
 40
16.223702456633
100
AcDbArc
 50
256.773529023177
 51
256.989828230346
  0
ARC
  5
55A
100
AcDbEntity
  8
0
370
           0
 62
           0
100
AcDbCircle
 10
10.035893657791
 20
1.11365016668
 30
0.23292
 40
0.04564543753
100
AcDbArc
 50
180.790367421958
 51
256.77352902318
  0
ARC
  5
55B
100
AcDbEntity
  8
0
370
           0
 62
           0
100
AcDbCircle
 10
10.044240166972
 20
1.11376531002
 30
0.23292
 40
0.053992740897
100
AcDbArc
 50
109.34999834408
 51
180.790367421956
  0
ARC
  5
55C
100
AcDbEntity
  8
0
370
           0
 62
           0
100
AcDbCircle
 10
10.063193289811
 20
1.059794713173
 30
0.23292
 40
0.111194543223
100
AcDbArc
 50
77.081338907822
 51
109.349998344078
  0
ARC
  5
55D
100
AcDbEntity
  8
0
370
           0
 62
           0
100
AcDbCircle
 10
10.075278138228
 20
1.112481072527
 30
0.23292
 40
0.057139977983
100
AcDbArc
 50
3.250562525281
 51
77.081338907824
  0
LINE
  5
55E
100
AcDbEntity
  8
0
370
           0
 62
           0
100
AcDbLine
 10
10.132326184496
 20
1.115721057254
 30
0.23292
 11
10.096344116835
 21
1.115721057254
 31
0.23292
  0
ARC
  5
55F
100
AcDbEntity
  8
0
370
           0
 62
           0
100
AcDbCircle
 10
10.069776315883
 20
1.114732289633
 30
0.23292
 40
0.026586193951
100
AcDbArc
 50
2.13137991021
 51
69.344284227778
  0
ARC
  5
560
100
AcDbEntity
  8
0
370
           0
 62
           0
100
AcDbCircle
 10
10.061426253048
 20
1.092582730229
 30
0.23292
 40
0.050257411308
100
AcDbArc
 50
69.344284227775
 51
113.985968000131
  0
ARC
  5
561
100
AcDbEntity
  8
0
370
           0
 62
           0
100
AcDbCircle
 10
10.049681317335
 20
1.118979684171
 30
0.23292
 40
0.021365497347
100
AcDbArc
 50
113.98596800014
 51
258.26052768519
  0
ARC
  5
562
100
AcDbEntity
  8
0
370
           0
 62
           0
100
AcDbCircle
 10
11.427648842843
 20
7.749924848335
 30
0.23292
 40
6.79397417285
100
AcDbArc
 50
258.260527685182
 51
258.709013655919
  0
ARC
  5
563
100
AcDbEntity
  8
0
370
           0
 62
           0
100
AcDbCircle
 10
10.087508294953
 20
1.035490801161
 30
0.23292
 40
0.052895541516
100
AcDbArc
 50
30.923673677883
 51
79.173555709235
  0
ARC
  5
564
100
AcDbEntity
  8
0
370
           0
 62
           0
100
AcDbCircle
 10
10.09226660155
 20
1.038341259843
 30
0.23292
 40
0.047348777021
100
AcDbArc
 50
344.020723359957
 51
30.923673677882
  0
ARC
  5
565
100
AcDbEntity
  8
0
370
           0
 62
           0
100
AcDbCircle
 10
10.081384041678
 20
1.041457524351
 30
0.23292
 40
0.05866872463
100
AcDbArc
 50
291.948877604398
 51
344.020723359955
  0
ARC
  5
566
100
AcDbEntity
  8
0
370
           0
 62
           0
100
AcDbCircle
 10
10.063973853128
 20
1.084660196549
 30
0.23292
 40
0.10524753473
100
AcDbArc
 50
251.946924748946
 51
291.948877604401
  0
ARC
  5
567
100
AcDbEntity
  8
0
370
           0
 62
           0
100
AcDbCircle
 10
10.051037226944
 20
1.044970493186
 30
0.23292
 40
0.063502728465
100
AcDbArc
 50
204.158776579568
 51
251.946924748949
  0
LINE
  5
568
100
AcDbEntity
  8
0
370
           0
 62
           0
100
AcDbLine
 10
9.207040587864
 20
1.094892807569
 30
0.23292
 11
9.131523556614
 21
1.094892807569
 31
0.23292
  0
LINE
  5
569
100
AcDbEntity
  8
0
370
           0
 62
           0
100
AcDbLine
 10
9.207040587864
 20
1.063958120069
 30
0.23292
 11
9.131523556614
 21
1.063958120069
 31
0.23292
  0
LINE
  5
56A
100
AcDbEntity
  8
0
370
           0
 62
           0
100
AcDbLine
 10
9.131523556614
 20
1.094892807569
 30
0.23292
 11
9.131523556614
 21
1.063958120069
 31
0.23292
  0
LINE
  5
56B
100
AcDbEntity
  8
0
370
           0
 62
           0
100
AcDbLine
 10
9.207040587864
 20
1.094892807569
 30
0.23292
 11
9.207040587864
 21
1.063958120069
 31
0.23292
  0
LINE
  5
56C
100
AcDbEntity
  8
0
370
           0
 62
           0
100
AcDbLine
 10
8.942276056614
 20
1.165860620069
 30
0.23292
 11
9.095129806614
 21
1.165860620069
 31
0.23292
  0
LINE
  5
56D
100
AcDbEntity
  8
0
370
           0
 62
           0
100
AcDbLine
 10
8.942276056614
 20
1.135835776319
 30
0.23292
 11
9.095129806614
 21
1.135835776319
 31
0.23292
  0
LINE
  5
56E
100
AcDbEntity
  8
0
370
           0
 62
           0
100
AcDbLine
 10
9.095129806614
 20
1.165860620069
 30
0.23292
 11
9.095129806614
 21
1.135835776319
 31
0.23292
  0
LINE
  5
56F
100
AcDbEntity
  8
0
370
           0
 62
           0
100
AcDbLine
 10
8.942276056614
 20
1.165860620069
 30
0.23292
 11
8.942276056614
 21
1.135835776319
 31
0.23292
  0
LINE
  5
570
100
AcDbEntity
  8
0
370
           0
 62
           0
100
AcDbLine
 10
9.095129806614
 20
1.165860620069
 30
0.23292
 11
9.131523556614
 21
1.165860620069
 31
0.23292
  0
LINE
  5
571
100
AcDbEntity
  8
0
370
           0
 62
           0
100
AcDbLine
 10
9.095129806614
 20
0.983891870069
 30
0.23292
 11
9.131523556614
 21
0.983891870069
 31
0.23292
  0
LINE
  5
572
100
AcDbEntity
  8
0
370
           0
 62
           0
100
AcDbLine
 10
9.131523556614
 20
1.165860620069
 30
0.23292
 11
9.131523556614
 21
0.983891870069
 31
0.23292
  0
LINE
  5
573
100
AcDbEntity
  8
0
370
           0
 62
           0
100
AcDbLine
 10
9.095129806614
 20
1.165860620069
 30
0.23292
 11
9.095129806614
 21
0.983891870069
 31
0.23292
  0
LINE
  5
574
100
AcDbEntity
  8
0
370
           0
 62
           0
100
AcDbLine
 10
9.000506056614
 20
0.983891870069
 30
0.23292
 11
9.036899806614
 21
0.983891870069
 31
0.23292
  0
LINE
  5
575
100
AcDbEntity
  8
0
370
           0
 62
           0
100
AcDbLine
 10
9.000506056614
 20
1.135835776319
 30
0.23292
 11
9.036899806614
 21
1.135835776319
 31
0.23292
  0
LINE
  5
576
100
AcDbEntity
  8
0
370
           0
 62
           0
100
AcDbLine
 10
9.036899806614
 20
0.983891870069
 30
0.23292
 11
9.036899806614
 21
1.135835776319
 31
0.23292
  0
LINE
  5
577
100
AcDbEntity
  8
0
370
           0
 62
           0
100
AcDbLine
 10
9.000506056614
 20
0.983891870069
 30
0.23292
 11
9.000506056614
 21
1.135835776319
 31
0.23292
  0
LINE
  5
578
100
AcDbEntity
  8
0
370
           0
 62
           0
100
AcDbLine
 10
9.39890937424
 20
1.133854075521
 30
0.23292
 11
9.371847767458
 21
1.121080664686
 31
0.23292
  0
LINE
  5
579
100
AcDbEntity
  8
0
370
           0
 62
           0
100
AcDbLine
 10
9.36265703308
 20
1.16246651579
 30
0.23292
 11
9.353466298701
 21
1.136408757688
 31
0.23292
  0
LINE
  5
57A
100
AcDbEntity
  8
0
370
           0
 62
           0
100
AcDbLine
 10
9.371847767458
 20
1.121080664686
 30
0.23292
 11
9.353466298701
 21
1.136408757688
 31
0.23292
  0
LINE
  5
57B
100
AcDbEntity
  8
0
370
           0
 62
           0
100
AcDbLine
 10
9.39890937424
 20
1.133854075521
 30
0.23292
 11
9.36265703308
 21
1.16246651579
 31
0.23292
  0
LINE
  5
57C
100
AcDbEntity
  8
0
370
           0
 62
           0
100
AcDbLine
 10
9.3299788664
 20
0.98312782767
 30
0.23292
 11
9.3299788664
 21
1.006119967173
 31
0.23292
  0
LINE
  5
57D
100
AcDbEntity
  8
0
370
           0
 62
           0
100
AcDbLine
 10
9.377464327357
 20
0.999477793539
 30
0.23292
 11
9.364699418497
 21
1.016849632274
 31
0.23292
  0
LINE
  5
57E
100
AcDbEntity
  8
0
370
           0
 62
           0
100
AcDbLine
 10
9.3299788664
 20
1.006119967173
 30
0.23292
 11
9.364699418497
 21
1.016849632274
 31
0.23292
  0
LINE
  5
57F
100
AcDbEntity
  8
0
370
           0
 62
           0
100
AcDbLine
 10
9.3299788664
 20
0.98312782767
 30
0.23292
 11
9.377464327357
 21
0.999477793539
 31
0.23292
  0
ARC
  5
580
100
AcDbEntity
  8
0
370
           0
 62
           0
100
AcDbCircle
 10
9.329991741531
 20
1.066685194304
 30
0.23292
 40
0.08206332487
100
AcDbArc
 50
196.014666158639
 51
345.191921923056
  0
ARC
  5
581
100
AcDbEntity
  8
0
370
           0
 62
           0
100
AcDbCircle
 10
9.329835825257
 20
1.085680092127
 30
0.23292
 40
0.081808455264
100
AcDbArc
 50
17.226527836555
 51
163.450029351103
  0
ARC
  5
582
100
AcDbEntity
  8
0
370
           0
 62
           0
100
AcDbCircle
 10
9.37122563317
 20
1.075083354076
 30
0.23292
 40
0.095110167987
100
AcDbArc
 50
154.844310714821
 51
206.334603635427
  0
ARC
  5
583
100
AcDbEntity
  8
0
370
           0
 62
           0
100
AcDbCircle
 10
9.329688760662
 20
1.054523329997
 30
0.23292
 40
0.048763362619
100
AcDbArc
 50
206.334603635428
 51
334.026940150381
  0
ARC
  5
584
100
AcDbEntity
  8
0
370
           0
 62
           0
100
AcDbCircle
 10
9.288101284925
 20
1.074782696931
 30
0.23292
 40
0.095023065241
100
AcDbArc
 50
334.026940150379
 51
25.621643176438
  0
ARC
  5
585
100
AcDbEntity
  8
0
370
           0
 62
           0
100
AcDbCircle
 10
9.329543907409
 20
1.094657926519
 30
0.23292
 40
0.049060953567
100
AcDbArc
 50
25.621643176438
 51
154.84431071482
  0
LINE
  5
586
100
AcDbEntity
  8
0
370
           0
 62
           0
100
AcDbLine
 10
9.207040587864
 20
1.165860620069
 30
0.23292
 11
9.243434337864
 21
1.165860620069
 31
0.23292
  0
LINE
  5
587
100
AcDbEntity
  8
0
370
           0
 62
           0
100
AcDbLine
 10
9.207040587864
 20
0.983891870069
 30
0.23292
 11
9.243434337864
 21
0.983891870069
 31
0.23292
  0
LINE
  5
588
100
AcDbEntity
  8
0
370
           0
 62
           0
100
AcDbLine
 10
9.243434337864
 20
1.165860620069
 30
0.23292
 11
9.243434337864
 21
0.983891870069
 31
0.23292
  0
LINE
  5
589
100
AcDbEntity
  8
0
370
           0
 62
           0
100
AcDbLine
 10
9.207040587864
 20
1.165860620069
 30
0.23292
 11
9.207040587864
 21
0.983891870069
 31
0.23292
  0
LINE
  5
58A
100
AcDbEntity
  8
0
370
           0
 62
           0
100
AcDbLine
 10
9.36265703308
 20
1.16246651579
 30
0.23292
 11
9.353466298701
 21
1.136408757688
 31
0.23292
  0
LINE
  5
58B
100
AcDbEntity
  8
0
370
           0
 62
           0
100
AcDbLine
 10
9.32930859264
 20
1.169552739634
 30
0.23292
 11
9.328539913037
 21
1.143400226047
 31
0.23292
  0
LINE
  5
58C
100
AcDbEntity
  8
0
370
           0
 62
           0
100
AcDbLine
 10
9.353466298701
 20
1.136408757688
 30
0.23292
 11
9.328539913037
 21
1.143400226047
 31
0.23292
  0
LINE
  5
58D
100
AcDbEntity
  8
0
370
           0
 62
           0
100
AcDbLine
 10
9.36265703308
 20
1.16246651579
 30
0.23292
 11
9.32930859264
 21
1.169552739634
 31
0.23292
  0
LINE
  5
58E
100
AcDbEntity
  8
0
370
           0
 62
           0
100
AcDbLine
 10
9.280881777677
 20
1.15263052496
 30
0.23292
 11
9.294718010523
 21
1.131862352406
 31
0.23292
  0
LINE
  5
58F
100
AcDbEntity
  8
0
370
           0
 62
           0
100
AcDbLine
 10
9.256284030394
 20
1.124939628221
 30
0.23292
 11
9.282419136882
 21
1.106479030395
 31
0.23292
  0
LINE
  5
590
100
AcDbEntity
  8
0
370
           0
 62
           0
100
AcDbLine
 10
9.294718010523
 20
1.131862352406
 30
0.23292
 11
9.282419136882
 21
1.106479030395
 31
0.23292
  0
LINE
  5
591
100
AcDbEntity
  8
0
370
           0
 62
           0
100
AcDbLine
 10
9.280881777677
 20
1.15263052496
 30
0.23292
 11
9.256284030394
 21
1.124939628221
 31
0.23292
  0
LINE
  5
592
100
AcDbEntity
  8
0
370
           0
 62
           0
100
AcDbLine
 10
9.32930859264
 20
1.169552739634
 30
0.23292
 11
9.328539913037
 21
1.143400226047
 31
0.23292
  0
LINE
  5
593
100
AcDbEntity
  8
0
370
           0
 62
           0
100
AcDbLine
 10
9.280881777677
 20
1.15263052496
 30
0.23292
 11
9.294718010523
 21
1.131862352406
 31
0.23292
  0
LINE
  5
594
100
AcDbEntity
  8
0
370
           0
 62
           0
100
AcDbLine
 10
9.328539913037
 20
1.143400226047
 30
0.23292
 11
9.294718010523
 21
1.131862352406
 31
0.23292
  0
LINE
  5
595
100
AcDbEntity
  8
0
370
           0
 62
           0
100
AcDbLine
 10
9.32930859264
 20
1.169552739634
 30
0.23292
 11
9.280881777677
 21
1.15263052496
 31
0.23292
  0
LINE
  5
596
100
AcDbEntity
  8
0
370
           0
 62
           0
100
AcDbLine
 10
9.245730467927
 20
1.074585449247
 30
0.23292
 11
9.275345056481
 21
1.07203076708
 31
0.23292
  0
LINE
  5
597
100
AcDbEntity
  8
0
370
           0
 62
           0
100
AcDbLine
 10
9.259005973141
 20
1.022469933041
 30
0.23292
 11
9.285046387214
 21
1.032177725276
 31
0.23292
  0
LINE
  5
598
100
AcDbEntity
  8
0
370
           0
 62
           0
100
AcDbLine
 10
9.275345056481
 20
1.07203076708
 30
0.23292
 11
9.285046387214
 21
1.032177725276
 31
0.23292
  0
LINE
  5
599
100
AcDbEntity
  8
0
370
           0
 62
           0
100
AcDbLine
 10
9.245730467927
 20
1.074585449247
 30
0.23292
 11
9.259005973141
 21
1.022469933041
 31
0.23292
  0
LINE
  5
59A
100
AcDbEntity
  8
0
370
           0
 62
           0
100
AcDbLine
 10
9.256284030394
 20
1.124939628221
 30
0.23292
 11
9.282419136882
 21
1.106479030395
 31
0.23292
  0
LINE
  5
59B
100
AcDbEntity
  8
0
370
           0
 62
           0
100
AcDbLine
 10
9.245730467927
 20
1.074585449247
 30
0.23292
 11
9.275345056481
 21
1.07203076708
 31
0.23292
  0
LINE
  5
59C
100
AcDbEntity
  8
0
370
           0
 62
           0
100
AcDbLine
 10
9.282419136882
 20
1.106479030395
 30
0.23292
 11
9.275345056481
 21
1.07203076708
 31
0.23292
  0
LINE
  5
59D
100
AcDbEntity
  8
0
370
           0
 62
           0
100
AcDbLine
 10
9.256284030394
 20
1.124939628221
 30
0.23292
 11
9.245730467927
 21
1.074585449247
 31
0.23292
  0
ARC
  5
59E
100
AcDbEntity
  8
0
370
           0
 62
           0
100
AcDbCircle
 10
9.362427648741
 20
1.075995027071
 30
0.23292
 40
0.115808858837
100
AcDbArc
 50
163.450029351101
 51
196.014666158637
  0
LINE
  5
59F
100
AcDbEntity
  8
0
370
           0
 62
           0
100
AcDbLine
 10
9.297300699719
 20
0.989259064871
 30
0.23292
 11
9.310576204933
 21
1.008163712906
 31
0.23292
  0
LINE
  5
5A0
100
AcDbEntity
  8
0
370
           0
 62
           0
100
AcDbLine
 10
9.3299788664
 20
0.98312782767
 30
0.23292
 11
9.3299788664
 21
1.006119967173
 31
0.23292
  0
LINE
  5
5A1
100
AcDbEntity
  8
0
370
           0
 62
           0
100
AcDbLine
 10
9.310576204933
 20
1.008163712906
 30
0.23292
 11
9.3299788664
 21
1.006119967173
 31
0.23292
  0
LINE
  5
5A2
100
AcDbEntity
  8
0
370
           0
 62
           0
100
AcDbLine
 10
9.297300699719
 20
0.989259064871
 30
0.23292
 11
9.3299788664
 21
0.98312782767
 31
0.23292
  0
LINE
  5
5A3
100
AcDbEntity
  8
0
370
           0
 62
           0
100
AcDbLine
 10
9.259005973141
 20
1.022469933041
 30
0.23292
 11
9.285046387214
 21
1.032177725276
 31
0.23292
  0
LINE
  5
5A4
100
AcDbEntity
  8
0
370
           0
 62
           0
100
AcDbLine
 10
9.297300699719
 20
0.989259064871
 30
0.23292
 11
9.310576204933
 21
1.008163712906
 31
0.23292
  0
LINE
  5
5A5
100
AcDbEntity
  8
0
370
           0
 62
           0
100
AcDbLine
 10
9.285046387214
 20
1.032177725276
 30
0.23292
 11
9.310576204933
 21
1.008163712906
 31
0.23292
  0
LINE
  5
5A6
100
AcDbEntity
  8
0
370
           0
 62
           0
100
AcDbLine
 10
9.259005973141
 20
1.022469933041
 30
0.23292
 11
9.297300699719
 21
0.989259064871
 31
0.23292
  0
LINE
  5
5A7
100
AcDbEntity
  8
0
370
           0
 62
           0
100
AcDbLine
 10
9.515673468381
 20
1.140129846922
 30
0.23292
 11
9.528482866619
 21
1.160864733438
 31
0.23292
  0
LINE
  5
5A8
100
AcDbEntity
  8
0
370
           0
 62
           0
100
AcDbLine
 10
9.500056106233
 20
1.138119345805
 30
0.23292
 11
9.516820756328
 21
1.165860620069
 31
0.23292
  0
LINE
  5
5A9
100
AcDbEntity
  8
0
370
           0
 62
           0
100
AcDbLine
 10
9.528482866619
 20
1.160864733438
 30
0.23292
 11
9.516820756328
 21
1.165860620069
 31
0.23292
  0
LINE
  5
5AA
100
AcDbEntity
  8
0
370
           0
 62
           0
100
AcDbLine
 10
9.515673468381
 20
1.140129846922
 30
0.23292
 11
9.500056106233
 21
1.138119345805
 31
0.23292
  0
LINE
  5
5AB
100
AcDbEntity
  8
0
370
           0
 62
           0
100
AcDbLine
 10
9.528106119612
 20
1.12693491914
 30
0.23292
 11
9.556362145139
 21
1.141637838669
 31
0.23292
  0
LINE
  5
5AC
100
AcDbEntity
  8
0
370
           0
 62
           0
100
AcDbLine
 10
9.515673468381
 20
1.140129846922
 30
0.23292
 11
9.528482866619
 21
1.160864733438
 31
0.23292
  0
LINE
  5
5AD
100
AcDbEntity
  8
0
370
           0
 62
           0
100
AcDbLine
 10
9.556362145139
 20
1.141637838669
 30
0.23292
 11
9.528482866619
 21
1.160864733438
 31
0.23292
  0
LINE
  5
5AE
100
AcDbEntity
  8
0
370
           0
 62
           0
100
AcDbLine
 10
9.528106119612
 20
1.12693491914
 30
0.23292
 11
9.515673468381
 21
1.140129846922
 31
0.23292
  0
LINE
  5
5AF
100
AcDbEntity
  8
0
370
           0
 62
           0
100
AcDbLine
 10
9.531873589683
 20
1.111855001674
 30
0.23292
 11
9.560129615209
 21
1.102807051194
 31
0.23292
  0
LINE
  5
5B0
100
AcDbEntity
  8
0
370
           0
 62
           0
100
AcDbLine
 10
9.528106119612
 20
1.12693491914
 30
0.23292
 11
9.556362145139
 21
1.141637838669
 31
0.23292
  0
LINE
  5
5B1
100
AcDbEntity
  8
0
370
           0
 62
           0
100
AcDbLine
 10
9.560129615209
 20
1.102807051194
 30
0.23292
 11
9.556362145139
 21
1.141637838669
 31
0.23292
  0
LINE
  5
5B2
100
AcDbEntity
  8
0
370
           0
 62
           0
100
AcDbLine
 10
9.531873589683
 20
1.111855001674
 30
0.23292
 11
9.528106119612
 21
1.12693491914
 31
0.23292
  0
LINE
  5
5B3
100
AcDbEntity
  8
0
370
           0
 62
           0
100
AcDbLine
 10
9.453551814756
 20
1.138119345805
 30
0.23292
 11
9.453551814756
 21
1.161895941739
 31
0.23292
  0
LINE
  5
5B4
100
AcDbEntity
  8
0
370
           0
 62
           0
100
AcDbLine
 10
9.500056106233
 20
1.138119345805
 30
0.23292
 11
9.516820756328
 21
1.165860620069
 31
0.23292
  0
LINE
  5
5B5
100
AcDbEntity
  8
0
370
           0
 62
           0
100
AcDbLine
 10
9.453551814756
 20
1.161895941739
 30
0.23292
 11
9.516820756328
 21
1.165860620069
 31
0.23292
  0
LINE
  5
5B6
100
AcDbEntity
  8
0
370
           0
 62
           0
100
AcDbLine
 10
9.453551814756
 20
1.138119345805
 30
0.23292
 11
9.500056106233
 21
1.138119345805
 31
0.23292
  0
ARC
  5
5B7
100
AcDbEntity
  8
0
370
           0
 62
           0
100
AcDbCircle
 10
9.500056106233
 20
1.111083279044
 30
0.23292
 40
0.030675441761
100
AcDbArc
 50
270.0
 51
90.0
  0
ARC
  5
5B8
100
AcDbEntity
  8
0
370
           0
 62
           0
100
AcDbCircle
 10
9.516820756328
 20
1.118058853897
 30
0.23292
 40
0.044162391172
100
AcDbArc
 50
277.093870941068
 51
90.0
  0
LINE
  5
5B9
100
AcDbEntity
  8
0
370
           0
 62
           0
100
AcDbLine
 10
9.416378345403
 20
0.983891870069
 30
0.23292
 11
9.416378345403
 21
1.165860620069
 31
0.23292
  0
LINE
  5
5BA
100
AcDbEntity
  8
0
370
           0
 62
           0
100
AcDbLine
 10
9.453551814756
 20
0.983891870069
 30
0.23292
 11
9.453551814756
 21
1.161895941739
 31
0.23292
  0
LINE
  5
5BB
100
AcDbEntity
  8
0
370
           0
 62
           0
100
AcDbLine
 10
9.416378345403
 20
1.165860620069
 30
0.23292
 11
9.453551814756
 21
1.161895941739
 31
0.23292
  0
LINE
  5
5BC
100
AcDbEntity
  8
0
370
           0
 62
           0
100
AcDbLine
 10
9.416378345403
 20
0.983891870069
 30
0.23292
 11
9.453551814756
 21
0.983891870069
 31
0.23292
  0
LINE
  5
5BD
100
AcDbEntity
  8
0
370
           0
 62
           0
100
AcDbLine
 10
9.453551814756
 20
1.084047212283
 30
0.23292
 11
9.453551814756
 21
1.0566163319
 31
0.23292
  0
LINE
  5
5BE
100
AcDbEntity
  8
0
370
           0
 62
           0
100
AcDbLine
 10
9.500056106233
 20
1.084047212283
 30
0.23292
 11
9.488994624782
 21
1.0566163319
 31
0.23292
  0
LINE
  5
5BF
100
AcDbEntity
  8
0
370
           0
 62
           0
100
AcDbLine
 10
9.453551814756
 20
1.0566163319
 30
0.23292
 11
9.488994624782
 21
1.0566163319
 31
0.23292
  0
LINE
  5
5C0
100
AcDbEntity
  8
0
370
           0
 62
           0
100
AcDbLine
 10
9.453551814756
 20
1.084047212283
 30
0.23292
 11
9.500056106233
 21
1.084047212283
 31
0.23292
  0
LINE
  5
5C1
100
AcDbEntity
  8
0
370
           0
 62
           0
100
AcDbLine
 10
9.414227264872
 20
1.082249495748
 30
0.23292
 11
9.3825702909
 21
1.085315114348
 31
0.23292
  0
LINE
  5
5C2
100
AcDbEntity
  8
0
370
           0
 62
           0
100
AcDbLine
 10
9.39890937424
 20
1.133854075521
 30
0.23292
 11
9.371847767458
 21
1.121080664686
 31
0.23292
  0
LINE
  5
5C3
100
AcDbEntity
  8
0
370
           0
 62
           0
100
AcDbLine
 10
9.3825702909
 20
1.085315114348
 30
0.23292
 11
9.371847767458
 21
1.121080664686
 31
0.23292
  0
LINE
  5
5C4
100
AcDbEntity
  8
0
370
           0
 62
           0
100
AcDbLine
 10
9.414227264872
 20
1.082249495748
 30
0.23292
 11
9.39890937424
 21
1.133854075521
 31
0.23292
  0
LINE
  5
5C5
100
AcDbEntity
  8
0
370
           0
 62
           0
100
AcDbLine
 10
9.402994145075
 20
1.028090233809
 30
0.23292
 11
9.381549098192
 21
1.050571436878
 31
0.23292
  0
LINE
  5
5C6
100
AcDbEntity
  8
0
370
           0
 62
           0
100
AcDbLine
 10
9.414227264872
 20
1.082249495748
 30
0.23292
 11
9.3825702909
 21
1.085315114348
 31
0.23292
  0
LINE
  5
5C7
100
AcDbEntity
  8
0
370
           0
 62
           0
100
AcDbLine
 10
9.381549098192
 20
1.050571436878
 30
0.23292
 11
9.3825702909
 21
1.085315114348
 31
0.23292
  0
LINE
  5
5C8
100
AcDbEntity
  8
0
370
           0
 62
           0
100
AcDbLine
 10
9.402994145075
 20
1.028090233809
 30
0.23292
 11
9.414227264872
 21
1.082249495748
 31
0.23292
  0
LINE
  5
5C9
100
AcDbEntity
  8
0
370
           0
 62
           0
100
AcDbLine
 10
9.377464327357
 20
0.999477793539
 30
0.23292
 11
9.364699418497
 21
1.016849632274
 31
0.23292
  0
LINE
  5
5CA
100
AcDbEntity
  8
0
370
           0
 62
           0
100
AcDbLine
 10
9.402994145075
 20
1.028090233809
 30
0.23292
 11
9.381549098192
 21
1.050571436878
 31
0.23292
  0
LINE
  5
5CB
100
AcDbEntity
  8
0
370
           0
 62
           0
100
AcDbLine
 10
9.364699418497
 20
1.016849632274
 30
0.23292
 11
9.381549098192
 21
1.050571436878
 31
0.23292
  0
LINE
  5
5CC
100
AcDbEntity
  8
0
370
           0
 62
           0
100
AcDbLine
 10
9.377464327357
 20
0.999477793539
 30
0.23292
 11
9.402994145075
 21
1.028090233809
 31
0.23292
  0
ARC
  5
5CD
100
AcDbEntity
  8
0
370
           0
 62
           0
100
AcDbCircle
 10
9.296839700587
 20
1.075449341895
 30
0.23292
 40
0.1163542581
100
AcDbArc
 50
345.191921923054
 51
17.226527836554
  0
LINE
  5
5CE
100
AcDbEntity
  8
0
370
           0
 62
           0
100
AcDbLine
 10
9.526489783448
 20
0.988951765677
 30
0.23292
 11
9.560243617519
 21
0.992499551537
 31
0.23292
  0
LINE
  5
5CF
100
AcDbEntity
  8
0
370
           0
 62
           0
100
AcDbLine
 10
9.525190241919
 20
0.993182126896
 30
0.23292
 11
9.560946114178
 21
0.995949591673
 31
0.23292
  0
LINE
  5
5D0
100
AcDbEntity
  8
0
370
           0
 62
           0
100
AcDbLine
 10
9.560243617519
 20
0.992499551537
 30
0.23292
 11
9.560946114178
 21
0.995949591673
 31
0.23292
  0
LINE
  5
5D1
100
AcDbEntity
  8
0
370
           0
 62
           0
100
AcDbLine
 10
9.526489783448
 20
0.988951765677
 30
0.23292
 11
9.525190241919
 21
0.993182126896
 31
0.23292
  0
LINE
  5
5D2
100
AcDbEntity
  8
0
370
           0
 62
           0
100
AcDbLine
 10
9.528208567783
 20
0.983891870069
 30
0.23292
 11
9.565725383076
 21
0.983891870069
 31
0.23292
  0
LINE
  5
5D3
100
AcDbEntity
  8
0
370
           0
 62
           0
100
AcDbLine
 10
9.526489783448
 20
0.988951765677
 30
0.23292
 11
9.560243617519
 21
0.992499551537
 31
0.23292
  0
LINE
  5
5D4
100
AcDbEntity
  8
0
370
           0
 62
           0
100
AcDbLine
 10
9.565725383076
 20
0.983891870069
 30
0.23292
 11
9.560243617519
 21
0.992499551537
 31
0.23292
  0
LINE
  5
5D5
100
AcDbEntity
  8
0
370
           0
 62
           0
100
AcDbLine
 10
9.528208567783
 20
0.983891870069
 30
0.23292
 11
9.526489783448
 21
0.988951765677
 31
0.23292
  0
ARC
  5
5D6
100
AcDbEntity
  8
0
370
           0
 62
           0
100
AcDbCircle
 10
9.58436855842
 20
0.998257418098
 30
0.23292
 40
0.027175240336
100
AcDbArc
 50
185.627221652326
 51
207.349684128657
  0
LINE
  5
5D7
100
AcDbEntity
  8
0
370
           0
 62
           0
100
AcDbLine
 10
9.519190651978
 20
1.083404180116
 30
0.23292
 11
9.533097358807
 21
1.076920738328
 31
0.23292
  0
LINE
  5
5D8
100
AcDbEntity
  8
0
370
           0
 62
           0
100
AcDbLine
 10
9.500056106233
 20
1.084047212283
 30
0.23292
 11
9.522724050932
 21
1.070623002877
 31
0.23292
  0
LINE
  5
5D9
100
AcDbEntity
  8
0
370
           0
 62
           0
100
AcDbLine
 10
9.533097358807
 20
1.076920738328
 30
0.23292
 11
9.522724050932
 21
1.070623002877
 31
0.23292
  0
LINE
  5
5DA
100
AcDbEntity
  8
0
370
           0
 62
           0
100
AcDbLine
 10
9.519190651978
 20
1.083404180116
 30
0.23292
 11
9.500056106233
 21
1.084047212283
 31
0.23292
  0
LINE
  5
5DB
100
AcDbEntity
  8
0
370
           0
 62
           0
100
AcDbLine
 10
9.519190651978
 20
1.083404180116
 30
0.23292
 11
9.533097358807
 21
1.076920738328
 31
0.23292
  0
LINE
  5
5DC
100
AcDbEntity
  8
0
370
           0
 62
           0
100
AcDbLine
 10
9.531873589683
 20
1.111855001674
 30
0.23292
 11
9.560129615209
 21
1.102807051194
 31
0.23292
  0
LINE
  5
5DD
100
AcDbEntity
  8
0
370
           0
 62
           0
100
AcDbLine
 10
9.533097358807
 20
1.076920738328
 30
0.23292
 11
9.560129615209
 21
1.102807051194
 31
0.23292
  0
LINE
  5
5DE
100
AcDbEntity
  8
0
370
           0
 62
           0
100
AcDbLine
 10
9.519190651978
 20
1.083404180116
 30
0.23292
 11
9.531873589683
 21
1.111855001674
 31
0.23292
  0
LINE
  5
5DF
100
AcDbEntity
  8
0
370
           0
 62
           0
100
AcDbLine
 10
9.504872262754
 20
1.057981534127
 30
0.23292
 11
9.522724050932
 21
1.070623002877
 31
0.23292
  0
LINE
  5
5E0
100
AcDbEntity
  8
0
370
           0
 62
           0
100
AcDbLine
 10
9.488994624782
 20
1.0566163319
 30
0.23292
 11
9.500056106233
 21
1.084047212283
 31
0.23292
  0
LINE
  5
5E1
100
AcDbEntity
  8
0
370
           0
 62
           0
100
AcDbLine
 10
9.522724050932
 20
1.070623002877
 30
0.23292
 11
9.500056106233
 21
1.084047212283
 31
0.23292
  0
LINE
  5
5E2
100
AcDbEntity
  8
0
370
           0
 62
           0
100
AcDbLine
 10
9.504872262754
 20
1.057981534127
 30
0.23292
 11
9.488994624782
 21
1.0566163319
 31
0.23292
  0
LINE
  5
5E3
100
AcDbEntity
  8
0
370
           0
 62
           0
100
AcDbLine
 10
9.514746456818
 20
1.04815424306
 30
0.23292
 11
9.534427625386
 21
1.061940237008
 31
0.23292
  0
LINE
  5
5E4
100
AcDbEntity
  8
0
370
           0
 62
           0
100
AcDbLine
 10
9.504872262754
 20
1.057981534127
 30
0.23292
 11
9.522724050932
 21
1.070623002877
 31
0.23292
  0
LINE
  5
5E5
100
AcDbEntity
  8
0
370
           0
 62
           0
100
AcDbLine
 10
9.534427625386
 20
1.061940237008
 30
0.23292
 11
9.522724050932
 21
1.070623002877
 31
0.23292
  0
LINE
  5
5E6
100
AcDbEntity
  8
0
370
           0
 62
           0
100
AcDbLine
 10
9.514746456818
 20
1.04815424306
 30
0.23292
 11
9.504872262754
 21
1.057981534127
 31
0.23292
  0
LINE
  5
5E7
100
AcDbEntity
  8
0
370
           0
 62
           0
100
AcDbLine
 10
9.523110953459
 20
1.036830033746
 30
0.23292
 11
9.552632706312
 21
1.047169529207
 31
0.23292
  0
LINE
  5
5E8
100
AcDbEntity
  8
0
370
           0
 62
           0
100
AcDbLine
 10
9.514746456818
 20
1.04815424306
 30
0.23292
 11
9.534427625386
 21
1.061940237008
 31
0.23292
  0
LINE
  5
5E9
100
AcDbEntity
  8
0
370
           0
 62
           0
100
AcDbLine
 10
9.552632706312
 20
1.047169529207
 30
0.23292
 11
9.534427625386
 21
1.061940237008
 31
0.23292
  0
LINE
  5
5EA
100
AcDbEntity
  8
0
370
           0
 62
           0
100
AcDbLine
 10
9.523110953459
 20
1.036830033746
 30
0.23292
 11
9.514746456818
 21
1.04815424306
 31
0.23292
  0
LINE
  5
5EB
100
AcDbEntity
  8
0
370
           0
 62
           0
100
AcDbLine
 10
9.522381447404
 20
1.025967528036
 30
0.23292
 11
9.556957334237
 21
1.036432261738
 31
0.23292
  0
LINE
  5
5EC
100
AcDbEntity
  8
0
370
           0
 62
           0
100
AcDbLine
 10
9.523110953459
 20
1.036830033746
 30
0.23292
 11
9.552632706312
 21
1.047169529207
 31
0.23292
  0
LINE
  5
5ED
100
AcDbEntity
  8
0
370
           0
 62
           0
100
AcDbLine
 10
9.556957334237
 20
1.036432261738
 30
0.23292
 11
9.552632706312
 21
1.047169529207
 31
0.23292
  0
LINE
  5
5EE
100
AcDbEntity
  8
0
370
           0
 62
           0
100
AcDbLine
 10
9.522381447404
 20
1.025967528036
 30
0.23292
 11
9.523110953459
 21
1.036830033746
 31
0.23292
  0
LINE
  5
5EF
100
AcDbEntity
  8
0
370
           0
 62
           0
100
AcDbLine
 10
9.522381447404
 20
1.025967528036
 30
0.23292
 11
9.525190241919
 21
0.993182126896
 31
0.23292
  0
LINE
  5
5F0
100
AcDbEntity
  8
0
370
           0
 62
           0
100
AcDbLine
 10
9.556957334237
 20
1.036432261738
 30
0.23292
 11
9.560946114178
 21
0.995949591673
 31
0.23292
  0
LINE
  5
5F1
100
AcDbEntity
  8
0
370
           0
 62
           0
100
AcDbLine
 10
9.525190241919
 20
0.993182126896
 30
0.23292
 11
9.560946114178
 21
0.995949591673
 31
0.23292
  0
LINE
  5
5F2
100
AcDbEntity
  8
0
370
           0
 62
           0
100
AcDbLine
 10
9.522381447404
 20
1.025967528036
 30
0.23292
 11
9.556957334237
 21
1.036432261738
 31
0.23292
  0
ARC
  5
5F3
100
AcDbEntity
  8
0
370
           0
 62
           0
100
AcDbCircle
 10
9.546657740026
 20
0.995021292769
 30
0.23292
 40
0.017906761686
100
AcDbArc
 50
184.896693616938
 51
211.100388180095
  0
ARC
  5
5F4
100
AcDbEntity
  8
0
370
           0
 62
           0
100
AcDbCircle
 10
9.488994624782
 20
1.023107208473
 30
0.23292
 40
0.037148498426
100
AcDbArc
 50
4.896693616939
 51
90.0
  0
ARC
  5
5F5
100
AcDbEntity
  8
0
370
           0
 62
           0
100
AcDbCircle
 10
9.519034668855
 20
1.032695720479
 30
0.23292
 40
0.0344669275
100
AcDbArc
 50
5.627221652323
 51
84.444024851441
  0
LINE
  5
5F6
100
AcDbEntity
  8
0
370
           0
 62
           0
100
AcDbLine
 10
9.516820756328
 20
1.162221245069
 30
0.23292
 11
9.416378345403
 21
1.162221245069
 31
0.23292
  0
LINE
  5
5F7
100
AcDbEntity
  8
0
370
           0
 62
           0
100
AcDbLine
 10
9.692050995676
 20
1.014826557569
 30
0.23292
 11
9.745668087864
 21
1.165860620069
 31
0.23292
  0
LINE
  5
5F8
100
AcDbEntity
  8
0
370
           0
 62
           0
100
AcDbLine
 10
9.745668087864
 20
1.165860620069
 30
0.23292
 11
9.786611056614
 21
1.165860620069
 31
0.23292
  0
LINE
  5
5F9
100
AcDbEntity
  8
0
370
           0
 62
           0
100
AcDbLine
 10
9.786611056614
 20
1.165860620069
 30
0.23292
 11
9.846641177581
 21
0.996761687765
 31
0.23292
  0
LINE
  5
5FA
100
AcDbEntity
  8
0
370
           0
 62
           0
100
AcDbLine
 10
9.800944084537
 20
1.023015151319
 30
0.23292
 11
9.73133505994
 21
1.023015151319
 31
0.23292
  0
LINE
  5
5FB
100
AcDbEntity
  8
0
370
           0
 62
           0
100
AcDbLine
 10
9.73133505994
 20
1.023015151319
 30
0.23292
 11
9.719282619114
 21
0.983891870069
 31
0.23292
  0
LINE
  5
5FC
100
AcDbEntity
  8
0
370
           0
 62
           0
100
AcDbLine
 10
9.719282619114
 20
0.983891870069
 30
0.23292
 11
9.681069181614
 21
0.983891870069
 31
0.23292
  0
LINE
  5
5FD
100
AcDbEntity
  8
0
370
           0
 62
           0
100
AcDbLine
 10
9.851209962864
 20
0.983891870069
 30
0.23292
 11
9.812996525364
 21
0.983891870069
 31
0.23292
  0
LINE
  5
5FE
100
AcDbEntity
  8
0
370
           0
 62
           0
100
AcDbLine
 10
9.812996525364
 20
0.983891870069
 30
0.23292
 11
9.800944084537
 21
1.023015151319
 31
0.23292
  0
LINE
  5
5FF
100
AcDbEntity
  8
0
370
           0
 62
           0
100
AcDbLine
 10
10.212089603833
 20
1.109037017753
 30
0.23292
 11
10.213030861951
 21
1.094457227689
 31
0.23292
  0
LINE
  5
600
100
AcDbEntity
  8
0
370
           0
 62
           0
100
AcDbLine
 10
10.234855651995
 20
1.116277605483
 30
0.23292
 11
10.24126860549
 21
1.105711935558
 31
0.23292
  0
LINE
  5
601
100
AcDbEntity
  8
0
370
           0
 62
           0
100
AcDbLine
 10
10.213030861951
 20
1.094457227689
 30
0.23292
 11
10.24126860549
 21
1.105711935558
 31
0.23292
  0
LINE
  5
602
100
AcDbEntity
  8
0
370
           0
 62
           0
100
AcDbLine
 10
10.212089603833
 20
1.109037017753
 30
0.23292
 11
10.234855651995
 21
1.116277605483
 31
0.23292
  0
ARC
  5
603
100
AcDbEntity
  8
0
370
           0
 62
           0
100
AcDbCircle
 10
10.208756533603
 20
1.143814793629
 30
0.23292
 40
0.048773607026
100
AcDbArc
 50
248.567724519312
 51
309.147226551964
  0
ARC
  5
604
100
AcDbEntity
  8
0
370
           0
 62
           0
100
AcDbCircle
 10
10.195894389997
 20
1.135224140895
 30
0.23292
 40
0.019647392622
100
AcDbArc
 50
98.933815965911
 51
174.585284534451
  0
ARC
  5
605
100
AcDbEntity
  8
0
370
           0
 62
           0
100
AcDbCircle
 10
10.199840622723
 20
1.134850089469
 30
0.23292
 40
0.023611313307
100
AcDbArc
 50
174.585284534451
 51
240.177890614085
  0
ARC
  5
606
100
AcDbEntity
  8
0
370
           0
 62
           0
100
AcDbCircle
 10
10.209016412415
 20
1.150857595028
 30
0.23292
 40
0.042062203548
100
AcDbArc
 50
240.177890614086
 51
301.371172743127
  0
ARC
  5
607
100
AcDbEntity
  8
0
370
           0
 62
           0
100
AcDbCircle
 10
10.218571969148
 20
1.135185354386
 30
0.23292
 40
0.023706610635
100
AcDbArc
 50
301.371172743125
 51
348.408420779146
  0
ARC
  5
608
100
AcDbEntity
  8
0
370
           0
 62
           0
100
AcDbCircle
 10
10.221112431009
 20
1.134664261551
 30
0.23292
 40
0.02111325678
100
AcDbArc
 50
348.408420779148
 51
79.340214574605
  0
LINE
  5
609
100
AcDbEntity
  8
0
370
           0
 62
           0
100
AcDbLine
 10
10.166743242081
 20
1.030628614618
 30
0.23292
 11
10.252339477051
 21
1.08452254034
 31
0.23292
  0
LINE
  5
60A
100
AcDbEntity
  8
0
370
           0
 62
           0
100
AcDbLine
 10
10.166749620796
 20
1.013475142395
 30
0.23292
 11
10.252341342081
 21
1.066579816618
 31
0.23292
  0
LINE
  5
60B
100
AcDbEntity
  8
0
370
           0
 62
           0
100
AcDbLine
 10
10.252339477051
 20
1.08452254034
 30
0.23292
 11
10.252341342081
 21
1.066579816618
 31
0.23292
  0
LINE
  5
60C
100
AcDbEntity
  8
0
370
           0
 62
           0
100
AcDbLine
 10
10.166743242081
 20
1.030628614618
 30
0.23292
 11
10.166749620796
 21
1.013475142395
 31
0.23292
  0
LINE
  5
60D
100
AcDbEntity
  8
0
370
           0
 62
           0
100
AcDbLine
 10
10.166743242081
 20
1.084983408118
 30
0.23292
 11
10.252341342081
 21
1.084983408118
 31
0.23292
  0
LINE
  5
60E
100
AcDbEntity
  8
0
370
           0
 62
           0
100
AcDbLine
 10
10.166743242081
 20
1.067007807118
 30
0.23292
 11
10.252341342081
 21
1.067007807118
 31
0.23292
  0
LINE
  5
60F
100
AcDbEntity
  8
0
370
           0
 62
           0
100
AcDbLine
 10
10.252341342081
 20
1.084983408118
 30
0.23292
 11
10.252341342081
 21
1.067007807118
 31
0.23292
  0
LINE
  5
610
100
AcDbEntity
  8
0
370
           0
 62
           0
100
AcDbLine
 10
10.166743242081
 20
1.084983408118
 30
0.23292
 11
10.166743242081
 21
1.067007807118
 31
0.23292
  0
LINE
  5
611
100
AcDbEntity
  8
0
370
           0
 62
           0
100
AcDbLine
 10
10.252341342081
 20
1.012225023118
 30
0.23292
 11
10.166743242081
 21
1.012225023118
 31
0.23292
  0
LINE
  5
612
100
AcDbEntity
  8
0
370
           0
 62
           0
100
AcDbLine
 10
10.252341342081
 20
1.030200624118
 30
0.23292
 11
10.166743242081
 21
1.030200624118
 31
0.23292
  0
LINE
  5
613
100
AcDbEntity
  8
0
370
           0
 62
           0
100
AcDbLine
 10
10.166743242081
 20
1.012225023118
 30
0.23292
 11
10.166743242081
 21
1.030200624118
 31
0.23292
  0
LINE
  5
614
100
AcDbEntity
  8
0
370
           0
 62
           0
100
AcDbLine
 10
10.252341342081
 20
1.012225023118
 30
0.23292
 11
10.252341342081
 21
1.030200624118
 31
0.23292
  0
LINE
  5
615
100
AcDbEntity
  8
0
370
           0
 62
           0
100
AcDbLine
 10
10.16674324745
 20
0.979269755434
 30
0.23292
 11
10.16674324745
 21
0.997245356434
 31
0.23292
  0
LINE
  5
616
100
AcDbEntity
  8
0
370
           0
 62
           0
100
AcDbLine
 10
10.25234134745
 20
0.979269755434
 30
0.23292
 11
10.25234134745
 21
0.997245356434
 31
0.23292
  0
LINE
  5
617
100
AcDbEntity
  8
0
370
           0
 62
           0
100
AcDbLine
 10
10.16674324745
 20
0.997245356434
 30
0.23292
 11
10.25234134745
 21
0.997245356434
 31
0.23292
  0
LINE
  5
618
100
AcDbEntity
  8
0
370
           0
 62
           0
100
AcDbLine
 10
10.16674324745
 20
0.979269755434
 30
0.23292
 11
10.25234134745
 21
0.979269755434
 31
0.23292
  0
LINE
  5
619
100
AcDbEntity
  8
0
370
           0
 62
           0
100
AcDbLine
 10
10.176478671703
 20
1.141645580478
 30
0.23292
 11
10.166595461464
 21
1.145721650819
 31
0.23292
  0
LINE
  5
61A
100
AcDbEntity
  8
0
370
           0
 62
           0
100
AcDbLine
 10
10.178204311586
 20
1.123460035882
 30
0.23292
 11
10.167850472288
 21
1.119227193605
 31
0.23292
  0
LINE
  5
61B
100
AcDbEntity
  8
0
370
           0
 62
           0
100
AcDbLine
 10
10.166595461464
 20
1.145721650819
 30
0.23292
 11
10.167850472288
 21
1.119227193605
 31
0.23292
  0
LINE
  5
61C
100
AcDbEntity
  8
0
370
           0
 62
           0
100
AcDbLine
 10
10.176478671703
 20
1.141645580478
 30
0.23292
 11
10.178204311586
 21
1.123460035882
 31
0.23292
  0
ARC
  5
61D
100
AcDbEntity
  8
0
370
           0
 62
           0
100
AcDbCircle
 10
10.205252023509
 20
1.134887144659
 30
0.23292
 40
0.039182751635
100
AcDbArc
 50
161.634705724255
 51
248.567724519311
  0
LINE
  5
61E
100
AcDbEntity
  8
0
370
           0
 62
           0
100
AcDbLine
 10
10.194519452297
 20
1.110447965179
 30
0.23292
 11
10.185734376529
 21
1.099944245455
 31
0.23292
  0
LINE
  5
61F
100
AcDbEntity
  8
0
370
           0
 62
           0
100
AcDbLine
 10
10.212089603833
 20
1.109037017753
 30
0.23292
 11
10.213030861951
 21
1.094457227689
 31
0.23292
  0
LINE
  5
620
100
AcDbEntity
  8
0
370
           0
 62
           0
100
AcDbLine
 10
10.185734376529
 20
1.099944245455
 30
0.23292
 11
10.213030861951
 21
1.094457227689
 31
0.23292
  0
LINE
  5
621
100
AcDbEntity
  8
0
370
           0
 62
           0
100
AcDbLine
 10
10.194519452297
 20
1.110447965179
 30
0.23292
 11
10.212089603833
 21
1.109037017753
 31
0.23292
  0
LINE
  5
622
100
AcDbEntity
  8
0
370
           0
 62
           0
100
AcDbLine
 10
10.178204311586
 20
1.123460035882
 30
0.23292
 11
10.167850472288
 21
1.119227193605
 31
0.23292
  0
LINE
  5
623
100
AcDbEntity
  8
0
370
           0
 62
           0
100
AcDbLine
 10
10.194519452297
 20
1.110447965179
 30
0.23292
 11
10.185734376529
 21
1.099944245455
 31
0.23292
  0
LINE
  5
624
100
AcDbEntity
  8
0
370
           0
 62
           0
100
AcDbLine
 10
10.167850472288
 20
1.119227193605
 30
0.23292
 11
10.185734376529
 21
1.099944245455
 31
0.23292
  0
LINE
  5
625
100
AcDbEntity
  8
0
370
           0
 62
           0
100
AcDbLine
 10
10.178204311586
 20
1.123460035882
 30
0.23292
 11
10.194519452297
 21
1.110447965179
 31
0.23292
  0
LINE
  5
626
100
AcDbEntity
  8
0
370
           0
 62
           0
100
AcDbLine
 10
10.190759480353
 20
1.154015391959
 30
0.23292
 11
10.189646164299
 21
1.168832868507
 31
0.23292
  0
LINE
  5
627
100
AcDbEntity
  8
0
370
           0
 62
           0
100
AcDbLine
 10
10.193109135041
 20
1.152941985754
 30
0.23292
 11
10.193109135041
 21
1.169687899593
 31
0.23292
  0
LINE
  5
628
100
AcDbEntity
  8
0
370
           0
 62
           0
100
AcDbLine
 10
10.189646164299
 20
1.168832868507
 30
0.23292
 11
10.193109135041
 21
1.169687899593
 31
0.23292
  0
LINE
  5
629
100
AcDbEntity
  8
0
370
           0
 62
           0
100
AcDbLine
 10
10.190759480353
 20
1.154015391959
 30
0.23292
 11
10.193109135041
 21
1.152941985754
 31
0.23292
  0
LINE
  5
62A
100
AcDbEntity
  8
0
370
           0
 62
           0
100
AcDbLine
 10
10.187146263706
 20
1.15308993182
 30
0.23292
 11
10.178518064292
 21
1.16249624799
 31
0.23292
  0
LINE
  5
62B
100
AcDbEntity
  8
0
370
           0
 62
           0
100
AcDbLine
 10
10.190759480353
 20
1.154015391959
 30
0.23292
 11
10.189646164299
 21
1.168832868507
 31
0.23292
  0
LINE
  5
62C
100
AcDbEntity
  8
0
370
           0
 62
           0
100
AcDbLine
 10
10.178518064292
 20
1.16249624799
 30
0.23292
 11
10.189646164299
 21
1.168832868507
 31
0.23292
  0
LINE
  5
62D
100
AcDbEntity
  8
0
370
           0
 62
           0
100
AcDbLine
 10
10.187146263706
 20
1.15308993182
 30
0.23292
 11
10.190759480353
 21
1.154015391959
 31
0.23292
  0
ARC
  5
62E
100
AcDbEntity
  8
0
370
           0
 62
           0
100
AcDbCircle
 10
10.197160661847
 20
1.137573339993
 30
0.23292
 40
0.030657156119
100
AcDbArc
 50
98.190873886347
 51
161.634705724257
  0
LINE
  5
62F
100
AcDbEntity
  8
0
370
           0
 62
           0
100
AcDbLine
 10
10.187146263706
 20
1.15308993182
 30
0.23292
 11
10.178518064292
 21
1.16249624799
 31
0.23292
  0
LINE
  5
630
100
AcDbEntity
  8
0
370
           0
 62
           0
100
AcDbLine
 10
10.176478671703
 20
1.141645580478
 30
0.23292
 11
10.166595461464
 21
1.145721650819
 31
0.23292
  0
LINE
  5
631
100
AcDbEntity
  8
0
370
           0
 62
           0
100
AcDbLine
 10
10.178518064292
 20
1.16249624799
 30
0.23292
 11
10.166595461464
 21
1.145721650819
 31
0.23292
  0
LINE
  5
632
100
AcDbEntity
  8
0
370
           0
 62
           0
100
AcDbLine
 10
10.187146263706
 20
1.15308993182
 30
0.23292
 11
10.176478671703
 21
1.141645580478
 31
0.23292
  0
LINE
  5
633
100
AcDbEntity
  8
0
370
           0
 62
           0
100
AcDbLine
 10
10.242308543894
 20
1.13307875274
 30
0.23292
 11
10.253401220209
 21
1.127536106222
 31
0.23292
  0
LINE
  5
634
100
AcDbEntity
  8
0
370
           0
 62
           0
100
AcDbLine
 10
10.237802144141
 20
1.147974615257
 30
0.23292
 11
10.248374851254
 21
1.155076131108
 31
0.23292
  0
LINE
  5
635
100
AcDbEntity
  8
0
370
           0
 62
           0
100
AcDbLine
 10
10.253401220209
 20
1.127536106222
 30
0.23292
 11
10.248374851254
 21
1.155076131108
 31
0.23292
  0
LINE
  5
636
100
AcDbEntity
  8
0
370
           0
 62
           0
100
AcDbLine
 10
10.242308543894
 20
1.13307875274
 30
0.23292
 11
10.237802144141
 21
1.147974615257
 31
0.23292
  0
ARC
  5
637
100
AcDbEntity
  8
0
370
           0
 62
           0
100
AcDbCircle
 10
10.211966221018
 20
1.134643337033
 30
0.23292
 40
0.040855414279
100
AcDbArc
 50
349.741236613777
 51
24.3551846036
  0
LINE
  5
638
100
AcDbEntity
  8
0
370
           0
 62
           0
100
AcDbLine
 10
10.234855651995
 20
1.116277605483
 30
0.23292
 11
10.24126860549
 21
1.105711935558
 31
0.23292
  0
LINE
  5
639
100
AcDbEntity
  8
0
370
           0
 62
           0
100
AcDbLine
 10
10.242308543894
 20
1.13307875274
 30
0.23292
 11
10.253401220209
 21
1.127536106222
 31
0.23292
  0
LINE
  5
63A
100
AcDbEntity
  8
0
370
           0
 62
           0
100
AcDbLine
 10
10.24126860549
 20
1.105711935558
 30
0.23292
 11
10.253401220209
 21
1.127536106222
 31
0.23292
  0
LINE
  5
63B
100
AcDbEntity
  8
0
370
           0
 62
           0
100
AcDbLine
 10
10.234855651995
 20
1.116277605483
 30
0.23292
 11
10.242308543894
 21
1.13307875274
 31
0.23292
  0
ARC
  5
63C
100
AcDbEntity
  8
0
370
           0
 62
           0
100
AcDbCircle
 10
10.216957983054
 20
1.133739890935
 30
0.23292
 40
0.035782554821
100
AcDbArc
 50
309.14722655197
 51
349.741236613777
  0
LINE
  5
63D
100
AcDbEntity
  8
0
370
           0
 62
           0
100
AcDbLine
 10
10.227053051975
 20
1.154306215261
 30
0.23292
 11
10.228873356726
 21
1.170025515226
 31
0.23292
  0
LINE
  5
63E
100
AcDbEntity
  8
0
370
           0
 62
           0
100
AcDbLine
 10
10.224701222309
 20
1.153730745657
 30
0.23292
 11
10.224701222309
 21
1.171044470505
 31
0.23292
  0
LINE
  5
63F
100
AcDbEntity
  8
0
370
           0
 62
           0
100
AcDbLine
 10
10.228873356726
 20
1.170025515226
 30
0.23292
 11
10.224701222309
 21
1.171044470505
 31
0.23292
  0
LINE
  5
640
100
AcDbEntity
  8
0
370
           0
 62
           0
100
AcDbLine
 10
10.227053051975
 20
1.154306215261
 30
0.23292
 11
10.224701222309
 21
1.153730745657
 31
0.23292
  0
ARC
  5
641
100
AcDbEntity
  8
0
370
           0
 62
           0
100
AcDbCircle
 10
10.221238320513
 20
1.138840606247
 30
0.23292
 40
0.030677551149
100
AcDbArc
 50
24.355184603593
 51
83.073910880473
  0
LINE
  5
642
100
AcDbEntity
  8
0
370
           0
 62
           0
100
AcDbLine
 10
10.237802144141
 20
1.147974615257
 30
0.23292
 11
10.248374851254
 21
1.155076131108
 31
0.23292
  0
LINE
  5
643
100
AcDbEntity
  8
0
370
           0
 62
           0
100
AcDbLine
 10
10.227053051975
 20
1.154306215261
 30
0.23292
 11
10.228873356726
 21
1.170025515226
 31
0.23292
  0
LINE
  5
644
100
AcDbEntity
  8
0
370
           0
 62
           0
100
AcDbLine
 10
10.248374851254
 20
1.155076131108
 30
0.23292
 11
10.228873356726
 21
1.170025515226
 31
0.23292
  0
LINE
  5
645
100
AcDbEntity
  8
0
370
           0
 62
           0
100
AcDbLine
 10
10.237802144141
 20
1.147974615257
 30
0.23292
 11
10.227053051975
 21
1.154306215261
 31
0.23292
  0
LINE
  5
646
100
AcDbEntity
  8
0
370
           0
 62
           0
100
AcDbLine
 10
8.695235149334
 20
5.231080716614
 30
0.0
 11
8.695235149334
 21
5.291080716614
 31
0.0
  0
LINE
  5
647
100
AcDbEntity
  8
0
370
           0
 62
           0
100
AcDbLine
 10
8.695235149334
 20
5.291080716614
 30
0.0
 11
8.515235149334
 21
5.261080716614
 31
0.0
  0
LINE
  5
648
100
AcDbEntity
  8
0
370
           0
 62
           0
100
AcDbLine
 10
8.695235149334
 20
5.231080716614
 30
0.0
 11
8.515235149334
 21
5.261080716614
 31
0.0
  0
LINE
  5
649
100
AcDbEntity
  8
0
370
           0
 62
           0
100
AcDbLine
 10
8.035235149334
 20
5.231080716614
 30
0.0
 11
8.035235149334
 21
5.291080716614
 31
0.0
  0
LINE
  5
64A
100
AcDbEntity
  8
0
370
           0
 62
           0
100
AcDbLine
 10
8.035235149334
 20
5.291080716614
 30
0.0
 11
8.215235149334
 21
5.261080716614
 31
0.0
  0
LINE
  5
64B
100
AcDbEntity
  8
0
370
           0
 62
           0
100
AcDbLine
 10
8.035235149334
 20
5.231080716614
 30
0.0
 11
8.215235149334
 21
5.261080716614
 31
0.0
  0
LINE
  5
64C
100
AcDbEntity
  8
0
370
           0
 62
           0
100
AcDbLine
 10
8.502314921779
 20
4.030446911241
 30
0.0
 11
8.539705357443
 21
4.077371908
 31
0.0
  0
LINE
  5
64D
100
AcDbEntity
  8
0
370
           0
 62
           0
100
AcDbLine
 10
8.539705357443
 20
4.077371908
 30
0.0
 11
8.380235149334
 21
4.166080716614
 31
0.0
  0
LINE
  5
64E
100
AcDbEntity
  8
0
370
           0
 62
           0
100
AcDbLine
 10
8.502314921779
 20
4.030446911241
 30
0.0
 11
8.380235149334
 21
4.166080716614
 31
0.0
  0
LINE
  5
64F
100
AcDbEntity
  8
0
370
           0
 62
           0
100
AcDbLine
 10
8.695235149334
 20
5.667217801867
 30
0.0
 11
8.695235149334
 21
5.727217801867
 31
0.0
  0
LINE
  5
650
100
AcDbEntity
  8
0
370
           0
 62
           0
100
AcDbLine
 10
8.695235149334
 20
5.727217801867
 30
0.0
 11
8.515235149334
 21
5.697217801867
 31
0.0
  0
LINE
  5
651
100
AcDbEntity
  8
0
370
           0
 62
           0
100
AcDbLine
 10
8.695235149334
 20
5.667217801867
 30
0.0
 11
8.515235149334
 21
5.697217801867
 31
0.0
  0
MTEXT
  5
652
100
AcDbEntity
  8
0
 62
           0
100
AcDbMText
 10
1.286973972234
 20
7.177286737738
 30
0.0
 40
0.125
 41
6.300673692698
 71
           1
 72
           5
  1
\fVerdana|b0|i0|c0|p34;COPYRIGHT \fSymbol|b0|i0|c2|p18;\H0.3;Ó\fVerdana|b0|i0|c0|p34;\H0.25; 2000 by THORLABS INC.
 73
           1
 44
0.5
  0
LINE
  5
653
100
AcDbEntity
  8
0
 62
           0
100
AcDbLine
 10
6.868943609804
 20
-0.06771677837
 30
0.0
 11
3.881332881725
 21
-0.06771677837
 31
0.0
  0
LINE
  5
654
100
AcDbEntity
  8
0
 62
           0
100
AcDbLine
 10
3.928849553344
 20
-0.038046761385
 30
0.0
 11
6.821426938184
 21
-0.038046761385
 31
0.0
  0
TEXT
  5
655
100
AcDbEntity
  8
0
 62
           0
100
AcDbText
 10
3.977712183316
 20
-0.014605712877
 30
0.0
 40
0.075
  1
INFORMATION ONLY, NOT FOR MANUFACTURING
100
AcDbText
  0
LINE
  5
656
100
AcDbEntity
  8
0
370
           0
 62
           0
100
AcDbLine
 10
7.677087830571
 20
4.533687918941
 30
0.0
 11
7.635062130016
 21
4.490864555073
 31
0.0
  0
LINE
  5
657
100
AcDbEntity
  8
0
370
           0
 62
           0
100
AcDbLine
 10
7.635062130016
 20
4.490864555073
 30
0.0
 11
7.784545071896
 21
4.386199135344
 31
0.0
  0
LINE
  5
658
100
AcDbEntity
  8
0
370
           0
 62
           0
100
AcDbLine
 10
7.677087830571
 20
4.533687918941
 30
0.0
 11
7.784545071896
 21
4.386199135344
 31
0.0
  0
ENDSEC
  0
SECTION
  2
OBJECTS
  0
DICTIONARY
  5
C
100
AcDbDictionary
280
           0
281
           1
  3
ACAD_GROUP
350
D
  3
ACAD_MLINESTYLE
350
E
  3
ACAD_LAYOUT
350
4D4
  3
ACAD_PLOTSETTINGS
350
4D8
  3
ACAD_PLOTSTYLENAME
350
4D5
  3
ACAD_WIPEOUT_VARS
350
4D9
  0
DICTIONARY
  5
D
102
{ACAD_REACTORS
330
C
102
}
100
AcDbDictionary
280
           0
281
           1
  0
DICTIONARY
  5
E
102
{ACAD_REACTORS
330
C
102
}
100
AcDbDictionary
280
           0
281
           1
  3
STANDARD
350
1B
  0
MLINESTYLE
  5
1B
102
{ACAD_REACTORS
330
E
102
}
100
AcDbMlineStyle
  2
Standard
 70
           0
  3

 62
           0
 51
90.0
 52
90.0
 71
           2
 49
0.5
 62
         256
  6
ByLayer
 49
-0.5
 62
         256
  6
ByLayer
  0
ACDBDICTIONARYWDFLT
  5
4D5
102
{ACAD_REACTORS
330
C
102
}
100
AcDbDictionary
281
           1
  3
NORMAL
350
4D3
100
AcDbDictionaryWithDefault
340
4D3
  0
ACDBPLACEHOLDER
  5
4D3
102
{ACAD_REACTORS
330
4D5
102
}
  0
LAYOUT
  5
4D6
102
{ACAD_REACTORS
330
4D4
102
}
100
AcDbPlotSettings
  1

  2

  4

  6

 40
0.0
 41
0.0
 42
0.0
 43
0.0
 44
0.0
 45
0.0
 46
0.0
 47
0.0
 48
0.0
 49
0.0
140
0.0
141
0.0
142
1.0
143
1.0
 70
        1024
 72
           0
 73
           0
 74
           0
  7

 75
           0
147
1.0
148
0.0
149
0.0
100
AcDbLayout
  1
MODEL
 70
           0
 71
           0
 10
0.0
 20
0.0
 11
0.0
 21
0.0
 12
0.0
 22
0.0
 32
0.0
 14
0.0
 24
0.0
 34
0.0
 15
0.0
 25
0.0
 35
0.0
146
0.0
 13
0.0
 23
0.0
 33
0.0
 16
0.0
 26
0.0
 36
0.0
 17
0.0
 27
0.0
 37
0.0
 76
           0
330
18
331
0
345
0
346
0
  0
LAYOUT
  5
4D7
102
{ACAD_REACTORS
330
4D4
102
}
100
AcDbPlotSettings
  1

  2

  4

  6

 40
0.0
 41
0.0
 42
0.0
 43
0.0
 44
0.0
 45
0.0
 46
0.0
 47
0.0
 48
0.0
 49
0.0
140
0.0
141
0.0
142
1.0
143
1.0
 70
           0
 72
           0
 73
           0
 74
           0
  7

 75
           0
147
1.0
148
0.0
149
0.0
100
AcDbLayout
  1
LAYOUT1
 70
           0
 71
           0
 10
0.0
 20
0.0
 11
0.0
 21
0.0
 12
0.0
 22
0.0
 32
0.0
 14
0.0
 24
0.0
 34
0.0
 15
0.0
 25
0.0
 35
0.0
146
0.0
 13
0.0
 23
0.0
 33
0.0
 16
0.0
 26
0.0
 36
0.0
 17
0.0
 27
0.0
 37
0.0
 76
           0
330
15
331
0
345
0
346
0
  0
DICTIONARY
  5
4D4
102
{ACAD_REACTORS
330
C
102
}
100
AcDbDictionary
280
           0
281
           1
  3
MODEL
350
4D6
  3
LAYOUT1
350
4D7
  0
DICTIONARY
  5
4D8
102
{ACAD_REACTORS
330
C
102
}
100
AcDbDictionary
280
           0
281
           1
  0
WIPEOUTVARIABLES
  5
4D9
100
AcDbWipeoutVariables
 70
           1
  0
ENDSEC
  0
EOF
