ISO-10303-21;
HEADER;
FILE_DESCRIPTION (( 'STEP AP203' ),
    '1' );
FILE_NAME ('Web Model 43366_20765.step',
    '2022-03-15T18:07:14',
    ( '' ),
    ( '' ),
    'SwSTEP 2.0',
    'SolidWorks 2021',
    '' );
FILE_SCHEMA (( 'CONFIG_CONTROL_DESIGN' ));
ENDSEC;

DATA;
#1 = DATE_AND_TIME ( #123, #31 ) ;
#2 = DIRECTION ( 'NONE',  ( 1.000000000000000000, 0.000000000000000000, 0.000000000000000000 ) ) ;
#3 = ADVANCED_FACE ( 'NONE', ( #70 ), #27, .F. ) ;
#4 = SHAPE_DEFINITION_REPRESENTATION ( #111, #34 ) ;
#5 = PERSON_AND_ORGANIZATION_ROLE ( 'classification_officer' ) ;
#6 = CIRCLE ( 'NONE', #142, 5.000000000000000000 ) ;
#7 = UNCERTAINTY_MEASURE_WITH_UNIT (LENGTH_MEASURE( 1.000000000000000082E-05 ), #94, 'distance_accuracy_value', 'NONE');
#8 = APPROVAL ( #99, 'UNSPECIFIED' ) ;
#9 = CYLINDRICAL_SURFACE ( 'NONE', #50, 5.000000000000000000 ) ;
#10 = FACE_OUTER_BOUND ( 'NONE', #121, .T. ) ;
#11 = ORGANIZATION ( 'UNSPECIFIED', 'UNSPECIFIED', '' ) ;
#12 = DIRECTION ( 'NONE',  ( 1.000000000000000000, 0.000000000000000000, 0.000000000000000000 ) ) ;
#13 = CYLINDRICAL_SURFACE ( 'NONE', #118, 5.000000000000000000 ) ;
#14 = DIRECTION ( 'NONE',  ( 1.000000000000000000, 0.000000000000000000, 0.000000000000000000 ) ) ;
#15 = APPLICATION_PROTOCOL_DEFINITION ( 'international standard', 'config_control_design', 1994, #164 ) ;
#16 = SECURITY_CLASSIFICATION_LEVEL ( 'unclassified' ) ;
#17 = PERSON_AND_ORGANIZATION ( #20, #11 ) ;
#18 = PERSON_AND_ORGANIZATION ( #20, #11 ) ;
#19 = MANIFOLD_SOLID_BREP ( 'Boss-Extrude1', #134 ) ;
#20 = PERSON ( 'UNSPECIFIED', 'UNSPECIFIED', 'UNSPECIFIED', ('UNSPECIFIED'), ('UNSPECIFIED'), ('UNSPECIFIED') ) ;
#21 = ORIENTED_EDGE ( 'NONE', *, *, #52, .F. ) ;
#22 = CC_DESIGN_PERSON_AND_ORGANIZATION_ASSIGNMENT ( #18, #162, ( #139 ) ) ;
#23 = ADVANCED_FACE ( 'NONE', ( #95 ), #81, .T. ) ;
#24 = CARTESIAN_POINT ( 'NONE',  ( -5.000000000000000000, 0.000000000000000000, 0.5000000000000000000 ) ) ;
#25 = CARTESIAN_POINT ( 'NONE',  ( 0.000000000000000000, 0.000000000000000000, 0.5000000000000000000 ) ) ;
#26 = AXIS2_PLACEMENT_3D ( 'NONE', #86, #98, #2 ) ;
#27 = PLANE ( 'NONE',  #143 ) ;
#28 = EDGE_CURVE ( 'NONE', #158, #172, #127, .T. ) ;
#29 = DIRECTION ( 'NONE',  ( -1.000000000000000000, 0.000000000000000000, 0.000000000000000000 ) ) ;
#30 = CALENDAR_DATE ( 2022, 15, 3 ) ;
#31 = LOCAL_TIME ( 14, 7, 14.00000000000000000, #56 ) ;
#32 = APPROVAL_ROLE ( '' ) ;
#33 = COORDINATED_UNIVERSAL_TIME_OFFSET ( 5, 0, .BEHIND. ) ;
#34 = ADVANCED_BREP_SHAPE_REPRESENTATION ( 'Web Model 43366_20765', ( #19, #26 ), #148 ) ;
#35 = ADVANCED_FACE ( 'NONE', ( #10 ), #9, .T. ) ;
#36 = AXIS2_PLACEMENT_3D ( 'NONE', #25, #147, #83 ) ;
#37 = ORIENTED_EDGE ( 'NONE', *, *, #28, .T. ) ;
#38 =( NAMED_UNIT ( * ) PLANE_ANGLE_UNIT ( ) SI_UNIT ( $, .RADIAN. ) );
#39 = DIRECTION ( 'NONE',  ( -0.000000000000000000, -0.000000000000000000, -1.000000000000000000 ) ) ;
#40 = CARTESIAN_POINT ( 'NONE',  ( 0.000000000000000000, 0.000000000000000000, 0.000000000000000000 ) ) ;
#41 = ORIENTED_EDGE ( 'NONE', *, *, #101, .T. ) ;
#42 = CARTESIAN_POINT ( 'NONE',  ( 0.000000000000000000, 0.000000000000000000, 0.5000000000000000000 ) ) ;
#43 = CALENDAR_DATE ( 2022, 15, 3 ) ;
#44 = DATE_TIME_ROLE ( 'creation_date' ) ;
#45 = VECTOR ( 'NONE', #51, 1000.000000000000000 ) ;
#46 = COORDINATED_UNIVERSAL_TIME_OFFSET ( 5, 0, .BEHIND. ) ;
#47 = AXIS2_PLACEMENT_3D ( 'NONE', #106, #131, #12 ) ;
#48 = ORIENTED_EDGE ( 'NONE', *, *, #156, .F. ) ;
#49 = EDGE_LOOP ( 'NONE', ( #92, #129 ) ) ;
#50 = AXIS2_PLACEMENT_3D ( 'NONE', #117, #173, #29 ) ;
#51 = DIRECTION ( 'NONE',  ( -0.000000000000000000, -0.000000000000000000, -1.000000000000000000 ) ) ;
#52 = EDGE_CURVE ( 'NONE', #69, #158, #170, .T. ) ;
#53 = DIRECTION ( 'NONE',  ( 0.000000000000000000, 0.000000000000000000, 1.000000000000000000 ) ) ;
#54 = DIRECTION ( 'NONE',  ( 1.000000000000000000, 0.000000000000000000, -0.000000000000000000 ) ) ;
#55 = CARTESIAN_POINT ( 'NONE',  ( 0.000000000000000000, 0.000000000000000000, 0.5000000000000000000 ) ) ;
#56 = COORDINATED_UNIVERSAL_TIME_OFFSET ( 5, 0, .BEHIND. ) ;
#57 = PERSON_AND_ORGANIZATION ( #20, #11 ) ;
#58 = SECURITY_CLASSIFICATION ( '', '', #16 ) ;
#59 = PERSON_AND_ORGANIZATION ( #20, #11 ) ;
#60 = CC_DESIGN_PERSON_AND_ORGANIZATION_ASSIGNMENT ( #57, #163, ( #133 ) ) ;
#61 = DATE_AND_TIME ( #136, #169 ) ;
#62 = CC_DESIGN_SECURITY_CLASSIFICATION ( #58, ( #139 ) ) ;
#63 = LOCAL_TIME ( 14, 7, 14.00000000000000000, #110 ) ;
#64 = ORIENTED_EDGE ( 'NONE', *, *, #152, .T. ) ;
#65 = ORIENTED_EDGE ( 'NONE', *, *, #168, .F. ) ;
#66 = CARTESIAN_POINT ( 'NONE',  ( 5.000000000000000000, 6.123233995736766282E-16, 0.5000000000000000000 ) ) ;
#67 = ADVANCED_FACE ( 'NONE', ( #174 ), #13, .T. ) ;
#68 = CIRCLE ( 'NONE', #153, 5.000000000000000000 ) ;
#69 = VERTEX_POINT ( 'NONE', #66 ) ;
#70 = FACE_OUTER_BOUND ( 'NONE', #49, .T. ) ;
#71 = CARTESIAN_POINT ( 'NONE',  ( 5.000000000000000000, 6.123233995736766282E-16, 0.5000000000000000000 ) ) ;
#72 = CC_DESIGN_APPROVAL ( #171, ( #146 ) ) ;
#73 = PERSON_AND_ORGANIZATION_ROLE ( 'creator' ) ;
#74 = APPROVAL_DATE_TIME ( #1, #109 ) ;
#75 = APPROVAL_ROLE ( '' ) ;
#76 = APPROVAL_STATUS ( 'not_yet_approved' ) ;
#77 = CC_DESIGN_APPROVAL ( #8, ( #139 ) ) ;
#78 = DATE_AND_TIME ( #43, #63 ) ;
#79 = ORIENTED_EDGE ( 'NONE', *, *, #168, .T. ) ;
#80 = PRODUCT_RELATED_PRODUCT_CATEGORY ( 'detail', '', ( #133 ) ) ;
#81 = PLANE ( 'NONE',  #36 ) ;
#82 = DIRECTION ( 'NONE',  ( 0.000000000000000000, 0.000000000000000000, 1.000000000000000000 ) ) ;
#83 = DIRECTION ( 'NONE',  ( 1.000000000000000000, 0.000000000000000000, -0.000000000000000000 ) ) ;
#84 = DIRECTION ( 'NONE',  ( -0.000000000000000000, -0.000000000000000000, -1.000000000000000000 ) ) ;
#85 = LOCAL_TIME ( 14, 7, 14.00000000000000000, #33 ) ;
#86 = CARTESIAN_POINT ( 'NONE',  ( 0.000000000000000000, 0.000000000000000000, 0.000000000000000000 ) ) ;
#87 = PERSON_AND_ORGANIZATION ( #20, #11 ) ;
#88 = CC_DESIGN_PERSON_AND_ORGANIZATION_ASSIGNMENT ( #59, #135, ( #139 ) ) ;
#89 = DATE_AND_TIME ( #30, #85 ) ;
#90 = VECTOR ( 'NONE', #39, 1000.000000000000000 ) ;
#91 = EDGE_LOOP ( 'NONE', ( #108, #154 ) ) ;
#92 = ORIENTED_EDGE ( 'NONE', *, *, #152, .F. ) ;
#93 = AXIS2_PLACEMENT_3D ( 'NONE', #119, #53, #157 ) ;
#94 =( LENGTH_UNIT ( ) NAMED_UNIT ( * ) SI_UNIT ( .MILLI., .METRE. ) );
#95 = FACE_OUTER_BOUND ( 'NONE', #91, .T. ) ;
#96 = ORIENTED_EDGE ( 'NONE', *, *, #28, .F. ) ;
#97 = CARTESIAN_POINT ( 'NONE',  ( 5.000000000000000000, 6.123233995736766282E-16, 0.000000000000000000 ) ) ;
#98 = DIRECTION ( 'NONE',  ( 0.000000000000000000, 0.000000000000000000, 1.000000000000000000 ) ) ;
#99 = APPROVAL_STATUS ( 'not_yet_approved' ) ;
#100 = APPROVAL_DATE_TIME ( #89, #8 ) ;
#101 = EDGE_CURVE ( 'NONE', #116, #172, #6, .T. ) ;
#102 = PERSON_AND_ORGANIZATION ( #20, #11 ) ;
#103 = CIRCLE ( 'NONE', #47, 5.000000000000000000 ) ;
#104 = DIRECTION ( 'NONE',  ( -1.000000000000000000, 0.000000000000000000, 0.000000000000000000 ) ) ;
#105 = APPROVAL_PERSON_ORGANIZATION ( #114, #171, #32 ) ;
#106 = CARTESIAN_POINT ( 'NONE',  ( 0.000000000000000000, 0.000000000000000000, 0.000000000000000000 ) ) ;
#107 = APPLICATION_CONTEXT ( 'configuration controlled 3d designs of mechanical parts and assemblies' ) ;
#108 = ORIENTED_EDGE ( 'NONE', *, *, #156, .T. ) ;
#109 = APPROVAL ( #76, 'UNSPECIFIED' ) ;
#110 = COORDINATED_UNIVERSAL_TIME_OFFSET ( 5, 0, .BEHIND. ) ;
#111 = PRODUCT_DEFINITION_SHAPE ( 'NONE', 'NONE',  #146 ) ;
#112 = APPROVAL_PERSON_ORGANIZATION ( #17, #8, #75 ) ;
#113 = APPROVAL_DATE_TIME ( #125, #171 ) ;
#114 = PERSON_AND_ORGANIZATION ( #20, #11 ) ;
#115 = CC_DESIGN_DATE_AND_TIME_ASSIGNMENT ( #78, #44, ( #146 ) ) ;
#116 = VERTEX_POINT ( 'NONE', #97 ) ;
#117 = CARTESIAN_POINT ( 'NONE',  ( 0.000000000000000000, 0.000000000000000000, 0.5000000000000000000 ) ) ;
#118 = AXIS2_PLACEMENT_3D ( 'NONE', #42, #84, #104 ) ;
#119 = CARTESIAN_POINT ( 'NONE',  ( 0.000000000000000000, 0.000000000000000000, 0.5000000000000000000 ) ) ;
#120 = CC_DESIGN_DATE_AND_TIME_ASSIGNMENT ( #61, #161, ( #58 ) ) ;
#121 = EDGE_LOOP ( 'NONE', ( #21, #79, #41, #96 ) ) ;
#122 = PERSON_AND_ORGANIZATION ( #20, #11 ) ;
#123 = CALENDAR_DATE ( 2022, 15, 3 ) ;
#124 = APPROVAL_PERSON_ORGANIZATION ( #87, #109, #150 ) ;
#125 = DATE_AND_TIME ( #165, #160 ) ;
#126 = CC_DESIGN_APPROVAL ( #109, ( #58 ) ) ;
#127 = LINE ( 'NONE', #130, #45 ) ;
#128 = DIRECTION ( 'NONE',  ( 1.000000000000000000, 0.000000000000000000, 0.000000000000000000 ) ) ;
#129 = ORIENTED_EDGE ( 'NONE', *, *, #101, .F. ) ;
#130 = CARTESIAN_POINT ( 'NONE',  ( -5.000000000000000000, 0.000000000000000000, 0.5000000000000000000 ) ) ;
#131 = DIRECTION ( 'NONE',  ( 0.000000000000000000, 0.000000000000000000, 1.000000000000000000 ) ) ;
#132 = APPROVAL_STATUS ( 'not_yet_approved' ) ;
#133 = PRODUCT ( 'Web Model 43366_20765', 'Web Model 43366_20765', '', ( #151 ) ) ;
#134 = CLOSED_SHELL ( 'NONE', ( #35, #67, #23, #3 ) ) ;
#135 = PERSON_AND_ORGANIZATION_ROLE ( 'creator' ) ;
#136 = CALENDAR_DATE ( 2022, 15, 3 ) ;
#137 = APPLICATION_PROTOCOL_DEFINITION ( 'international standard', 'config_control_design', 1994, #107 ) ;
#138 = CC_DESIGN_PERSON_AND_ORGANIZATION_ASSIGNMENT ( #102, #73, ( #146 ) ) ;
#139 = PRODUCT_DEFINITION_FORMATION_WITH_SPECIFIED_SOURCE ( 'ANY', '', #133, .NOT_KNOWN. ) ;
#140 = EDGE_LOOP ( 'NONE', ( #65, #48, #37, #64 ) ) ;
#141 = DESIGN_CONTEXT ( 'detailed design', #107, 'design' ) ;
#142 = AXIS2_PLACEMENT_3D ( 'NONE', #155, #82, #128 ) ;
#143 = AXIS2_PLACEMENT_3D ( 'NONE', #40, #149, #54 ) ;
#144 =( NAMED_UNIT ( * ) SI_UNIT ( $, .STERADIAN. ) SOLID_ANGLE_UNIT ( ) );
#145 = CARTESIAN_POINT ( 'NONE',  ( -5.000000000000000000, 0.000000000000000000, 0.000000000000000000 ) ) ;
#146 = PRODUCT_DEFINITION ( 'UNKNOWN', '', #139, #141 ) ;
#147 = DIRECTION ( 'NONE',  ( 0.000000000000000000, 0.000000000000000000, 1.000000000000000000 ) ) ;
#148 =( GEOMETRIC_REPRESENTATION_CONTEXT ( 3 ) GLOBAL_UNCERTAINTY_ASSIGNED_CONTEXT ( ( #7 ) ) GLOBAL_UNIT_ASSIGNED_CONTEXT ( ( #94, #38, #144 ) ) REPRESENTATION_CONTEXT ( 'NONE', 'WORKASPACE' ) );
#149 = DIRECTION ( 'NONE',  ( 0.000000000000000000, 0.000000000000000000, 1.000000000000000000 ) ) ;
#150 = APPROVAL_ROLE ( '' ) ;
#151 = MECHANICAL_CONTEXT ( 'NONE', #164, 'mechanical' ) ;
#152 = EDGE_CURVE ( 'NONE', #172, #116, #103, .T. ) ;
#153 = AXIS2_PLACEMENT_3D ( 'NONE', #55, #175, #14 ) ;
#154 = ORIENTED_EDGE ( 'NONE', *, *, #52, .T. ) ;
#155 = CARTESIAN_POINT ( 'NONE',  ( 0.000000000000000000, 0.000000000000000000, 0.000000000000000000 ) ) ;
#156 = EDGE_CURVE ( 'NONE', #158, #69, #68, .T. ) ;
#157 = DIRECTION ( 'NONE',  ( 1.000000000000000000, 0.000000000000000000, 0.000000000000000000 ) ) ;
#158 = VERTEX_POINT ( 'NONE', #24 ) ;
#159 = LINE ( 'NONE', #71, #90 ) ;
#160 = LOCAL_TIME ( 14, 7, 14.00000000000000000, #46 ) ;
#161 = DATE_TIME_ROLE ( 'classification_date' ) ;
#162 = PERSON_AND_ORGANIZATION_ROLE ( 'design_supplier' ) ;
#163 = PERSON_AND_ORGANIZATION_ROLE ( 'design_owner' ) ;
#164 = APPLICATION_CONTEXT ( 'configuration controlled 3d designs of mechanical parts and assemblies' ) ;
#165 = CALENDAR_DATE ( 2022, 15, 3 ) ;
#166 = CC_DESIGN_PERSON_AND_ORGANIZATION_ASSIGNMENT ( #122, #5, ( #58 ) ) ;
#167 = COORDINATED_UNIVERSAL_TIME_OFFSET ( 5, 0, .BEHIND. ) ;
#168 = EDGE_CURVE ( 'NONE', #69, #116, #159, .T. ) ;
#169 = LOCAL_TIME ( 14, 7, 14.00000000000000000, #167 ) ;
#170 = CIRCLE ( 'NONE', #93, 5.000000000000000000 ) ;
#171 = APPROVAL ( #132, 'UNSPECIFIED' ) ;
#172 = VERTEX_POINT ( 'NONE', #145 ) ;
#173 = DIRECTION ( 'NONE',  ( -0.000000000000000000, -0.000000000000000000, -1.000000000000000000 ) ) ;
#174 = FACE_OUTER_BOUND ( 'NONE', #140, .T. ) ;
#175 = DIRECTION ( 'NONE',  ( 0.000000000000000000, 0.000000000000000000, 1.000000000000000000 ) ) ;
ENDSEC;
END-ISO-10303-21;
