ISO-10303-21;
HEADER;
FILE_DESCRIPTION (( 'STEP AP214' ),
    '1' );
FILE_NAME ('19314-E0W.STEP',
    '2009-12-21T17:01:59',
    ( ' ' ),
    ( ' ' ),
    'SwSTEP 2.0',
    'SolidWorks 2009',
    '' );
FILE_SCHEMA (( 'AUTOMOTIVE_DESIGN' ));
ENDSEC;

DATA;
#1 = STYLED_ITEM ( 'NONE', ( #5 ), #14 ) ;
#2 = COLOUR_RGB ( '',0.9568627450980391500, 0.9490196078431372100, 0.9607843137254902200 ) ;
#3 =( LENGTH_UNIT ( ) NAMED_UNIT ( * ) SI_UNIT ( .MILLI., .METRE. ) );
#4 = SURFACE_SIDE_STYLE ('',( #62 ) ) ;
#5 = PRESENTATION_STYLE_ASSIGNMENT (( #6 ) ) ;
#6 = SURFACE_STYLE_USAGE ( .BOTH. , #4 ) ;
#7 = PRESENTATION_LAYER_ASSIGNMENT (  '', '', ( #1 ) ) ;
#8 = MECHANICAL_DESIGN_GEOMETRIC_PRESENTATION_REPRESENTATION (  '', ( #1 ), #110 ) ;
#9 =( NAMED_UNIT ( * ) PLANE_ANGLE_UNIT ( ) SI_UNIT ( $, .RADIAN. ) );
#10 = ORIENTED_EDGE ( 'NONE', *, *, #31, .T. ) ;
#11 = UNCERTAINTY_MEASURE_WITH_UNIT (LENGTH_MEASURE( 1.000000000000000100E-005 ), #207, 'distance_accuracy_value', 'NONE');
#12 = VERTEX_POINT ( 'NONE', #34 ) ;
#13 = EDGE_LOOP ( 'NONE', ( #55, #39 ) ) ;
#14 = ADVANCED_FACE ( 'NONE', ( #33 ), #86, .T. ) ;
#15 = EDGE_CURVE ( 'NONE', #47, #52, #88, .T. ) ;
#16 = VERTEX_POINT ( 'NONE', #105 ) ;
#17 = ADVANCED_FACE ( 'NONE', ( #127 ), #93, .T. ) ;
#18 = ORIENTED_EDGE ( 'NONE', *, *, #15, .T. ) ;
#19 = EDGE_LOOP ( 'NONE', ( #50, #57, #51, #40, #54 ) ) ;
#20 = ORIENTED_EDGE ( 'NONE', *, *, #29, .T. ) ;
#21 = ORIENTED_EDGE ( 'NONE', *, *, #44, .F. ) ;
#22 = VERTEX_POINT ( 'NONE', #106 ) ;
#23 = ORIENTED_EDGE ( 'NONE', *, *, #25, .F. ) ;
#24 = EDGE_CURVE ( 'NONE', #16, #43, #74, .T. ) ;
#25 = EDGE_CURVE ( 'NONE', #47, #22, #111, .T. ) ;
#26 = EDGE_CURVE ( 'NONE', #16, #12, #85, .T. ) ;
#27 = EDGE_LOOP ( 'NONE', ( #46, #37, #36, #49 ) ) ;
#28 = EDGE_LOOP ( 'NONE', ( #30, #20, #48, #18 ) ) ;
#29 = EDGE_CURVE ( 'NONE', #42, #43, #104, .T. ) ;
#30 = ORIENTED_EDGE ( 'NONE', *, *, #60, .F. ) ;
#31 = EDGE_CURVE ( 'NONE', #12, #22, #132, .T. ) ;
#32 = MANIFOLD_SOLID_BREP ( 'NONE', #56 ) ;
#33 = FACE_OUTER_BOUND ( 'NONE', #19, .T. ) ;
#34 = CARTESIAN_POINT ( 'NONE',  ( -15.00000000000000000, 1.836909530733565900E-015, -1.310000000000000500 ) ) ;
#35 = ORIENTED_EDGE ( 'NONE', *, *, #24, .F. ) ;
#36 = ORIENTED_EDGE ( 'NONE', *, *, #60, .T. ) ;
#37 = ORIENTED_EDGE ( 'NONE', *, *, #45, .T. ) ;
#38 = ADVANCED_FACE ( 'NONE', ( #144 ), #183, .F. ) ;
#39 = ORIENTED_EDGE ( 'NONE', *, *, #58, .F. ) ;
#40 = ORIENTED_EDGE ( 'NONE', *, *, #29, .F. ) ;
#41 = ADVANCED_FACE ( 'NONE', ( #161 ), #180, .T. ) ;
#42 = VERTEX_POINT ( 'NONE', #185 ) ;
#43 = VERTEX_POINT ( 'NONE', #186 ) ;
#44 = EDGE_CURVE ( 'NONE', #43, #47, #191, .T. ) ;
#45 = EDGE_CURVE ( 'NONE', #22, #42, #166, .T. ) ;
#46 = ORIENTED_EDGE ( 'NONE', *, *, #25, .T. ) ;
#47 = VERTEX_POINT ( 'NONE', #158 ) ;
#48 = ORIENTED_EDGE ( 'NONE', *, *, #44, .T. ) ;
#49 = ORIENTED_EDGE ( 'NONE', *, *, #15, .F. ) ;
#50 = ORIENTED_EDGE ( 'NONE', *, *, #31, .F. ) ;
#51 = ORIENTED_EDGE ( 'NONE', *, *, #24, .T. ) ;
#52 = VERTEX_POINT ( 'NONE', #157 ) ;
#53 = EDGE_LOOP ( 'NONE', ( #61, #10, #23, #21, #35 ) ) ;
#54 = ORIENTED_EDGE ( 'NONE', *, *, #45, .F. ) ;
#55 = ORIENTED_EDGE ( 'NONE', *, *, #26, .F. ) ;
#56 = CLOSED_SHELL ( 'NONE', ( #17, #41, #59, #14, #38 ) ) ;
#57 = ORIENTED_EDGE ( 'NONE', *, *, #58, .T. ) ;
#58 = EDGE_CURVE ( 'NONE', #12, #16, #198, .T. ) ;
#59 = ADVANCED_FACE ( 'NONE', ( #205 ), #214, .T. ) ;
#60 = EDGE_CURVE ( 'NONE', #42, #52, #225, .T. ) ;
#61 = ORIENTED_EDGE ( 'NONE', *, *, #26, .T. ) ;
#62 = SURFACE_STYLE_FILL_AREA ( #63 ) ;
#63 = FILL_AREA_STYLE ('',( #64 ) ) ;
#64 = FILL_AREA_STYLE_COLOUR ( '', #2 ) ;
#65 = SURFACE_SIDE_STYLE ('',( #66 ) ) ;
#66 = SURFACE_STYLE_FILL_AREA ( #67 ) ;
#67 = FILL_AREA_STYLE ('',( #133 ) ) ;
#68 = COLOUR_RGB ( '',0.7960784313725489700, 0.8235294117647058400, 0.9372549019607843100 ) ;
#69 = DIRECTION ( 'NONE',  ( -0.0000000000000000000, -0.0000000000000000000, 1.000000000000000000 ) ) ;
#70 = SURFACE_SIDE_STYLE ('',( #71 ) ) ;
#71 = SURFACE_STYLE_FILL_AREA ( #123 ) ;
#72 = VECTOR ( 'NONE', #112, 1000.000000000000000 ) ;
#73 = CARTESIAN_POINT ( 'NONE',  ( 15.00000000000000000, 0.0000000000000000000, 4.308132045400366600 ) ) ;
#74 = LINE ( 'NONE', #73, #72 ) ;
#75 = PRESENTATION_STYLE_ASSIGNMENT (( #76 ) ) ;
#76 = SURFACE_STYLE_USAGE ( .BOTH. , #70 ) ;
#77 = DIRECTION ( 'NONE',  ( 1.000000000000000000, 0.0000000000000000000, 0.0000000000000000000 ) ) ;
#78 = CARTESIAN_POINT ( 'NONE',  ( 0.0000000000000000000, 0.0000000000000000000, -127.4600000000000200 ) ) ;
#79 = DIRECTION ( 'NONE',  ( 1.000000000000000000, 0.0000000000000000000, 0.0000000000000000000 ) ) ;
#80 = DIRECTION ( 'NONE',  ( 1.000000000000000000, 0.0000000000000000000, 0.0000000000000000000 ) ) ;
#81 = DIRECTION ( 'NONE',  ( -0.0000000000000000000, -0.0000000000000000000, 1.000000000000000000 ) ) ;
#82 =( GEOMETRIC_REPRESENTATION_CONTEXT ( 3 ) GLOBAL_UNCERTAINTY_ASSIGNED_CONTEXT ( ( #114 ) ) GLOBAL_UNIT_ASSIGNED_CONTEXT ( ( #137, #94, #136 ) ) REPRESENTATION_CONTEXT ( 'NONE', 'WORKASPACE' ) );
#83 = UNCERTAINTY_MEASURE_WITH_UNIT (LENGTH_MEASURE( 1.000000000000000100E-005 ), #3, 'distance_accuracy_value', 'NONE');
#84 = AXIS2_PLACEMENT_3D ( 'NONE', #109, #100, #99 ) ;
#85 = CIRCLE ( 'NONE', #84, 15.00000000000000000 ) ;
#86 = CYLINDRICAL_SURFACE ( 'NONE', #113, 15.00000000000000000 ) ;
#87 = AXIS2_PLACEMENT_3D ( 'NONE', #78, #77, #121 ) ;
#88 = CIRCLE ( 'NONE', #87, 128.7700000000000400 ) ;
#89 =( NAMED_UNIT ( * ) PLANE_ANGLE_UNIT ( ) SI_UNIT ( $, .RADIAN. ) );
#90 = CARTESIAN_POINT ( 'NONE',  ( 0.0000000000000000000, 0.0000000000000000000, 0.4333653478553181100 ) ) ;
#91 = CARTESIAN_POINT ( 'NONE',  ( 0.0000000000000000000, 0.0000000000000000000, 4.308132045400366600 ) ) ;
#92 = AXIS2_PLACEMENT_3D ( 'NONE', #91, #81, #80 ) ;
#93 = CYLINDRICAL_SURFACE ( 'NONE', #92, 15.00000000000000000 ) ;
#94 =( NAMED_UNIT ( * ) PLANE_ANGLE_UNIT ( ) SI_UNIT ( $, .RADIAN. ) );
#95 = PRESENTATION_LAYER_ASSIGNMENT (  '', '', ( #96 ) ) ;
#96 = STYLED_ITEM ( 'NONE', ( #97 ), #32 ) ;
#97 = PRESENTATION_STYLE_ASSIGNMENT (( #98 ) ) ;
#98 = SURFACE_STYLE_USAGE ( .BOTH. , #65 ) ;
#99 = DIRECTION ( 'NONE',  ( 1.000000000000000000, 0.0000000000000000000, 0.0000000000000000000 ) ) ;
#100 = DIRECTION ( 'NONE',  ( -0.0000000000000000000, -0.0000000000000000000, 1.000000000000000000 ) ) ;
#101 = DIRECTION ( 'NONE',  ( 1.000000000000000000, 0.0000000000000000000, 0.0000000000000000000 ) ) ;
#102 = DIRECTION ( 'NONE',  ( -0.0000000000000000000, -0.0000000000000000000, 1.000000000000000000 ) ) ;
#103 = AXIS2_PLACEMENT_3D ( 'NONE', #90, #102, #101 ) ;
#104 = CIRCLE ( 'NONE', #103, 15.00000000000000200 ) ;
#105 = CARTESIAN_POINT ( 'NONE',  ( 15.00000000000000000, 0.0000000000000000000, -1.310000000000000500 ) ) ;
#106 = CARTESIAN_POINT ( 'NONE',  ( -15.00000000000000400, 1.836909530733566300E-015, 0.4333653478553181100 ) ) ;
#107 =( LENGTH_UNIT ( ) NAMED_UNIT ( * ) SI_UNIT ( .MILLI., .METRE. ) );
#108 = MECHANICAL_DESIGN_GEOMETRIC_PRESENTATION_REPRESENTATION (  '', ( #96 ), #142 ) ;
#109 = CARTESIAN_POINT ( 'NONE',  ( 0.0000000000000000000, 0.0000000000000000000, -1.310000000000000500 ) ) ;
#110 =( GEOMETRIC_REPRESENTATION_CONTEXT ( 3 ) GLOBAL_UNCERTAINTY_ASSIGNED_CONTEXT ( ( #83 ) ) GLOBAL_UNIT_ASSIGNED_CONTEXT ( ( #3, #9, #125 ) ) REPRESENTATION_CONTEXT ( 'NONE', 'WORKASPACE' ) );
#111 = CIRCLE ( 'NONE', #120, 15.00000000000000200 ) ;
#112 = DIRECTION ( 'NONE',  ( -0.0000000000000000000, -0.0000000000000000000, 1.000000000000000000 ) ) ;
#113 = AXIS2_PLACEMENT_3D ( 'NONE', #116, #115, #79 ) ;
#114 = UNCERTAINTY_MEASURE_WITH_UNIT (LENGTH_MEASURE( 1.000000000000000100E-005 ), #137, 'distance_accuracy_value', 'NONE');
#115 = DIRECTION ( 'NONE',  ( -0.0000000000000000000, -0.0000000000000000000, 1.000000000000000000 ) ) ;
#116 = CARTESIAN_POINT ( 'NONE',  ( 0.0000000000000000000, 0.0000000000000000000, 4.308132045400366600 ) ) ;
#117 = DIRECTION ( 'NONE',  ( 1.000000000000000000, 0.0000000000000000000, 0.0000000000000000000 ) ) ;
#118 = DIRECTION ( 'NONE',  ( -0.0000000000000000000, -0.0000000000000000000, 1.000000000000000000 ) ) ;
#119 = CARTESIAN_POINT ( 'NONE',  ( 0.0000000000000000000, 0.0000000000000000000, 0.4333653478553181100 ) ) ;
#120 = AXIS2_PLACEMENT_3D ( 'NONE', #119, #118, #117 ) ;
#121 = DIRECTION ( 'NONE',  ( 0.0000000000000000000, 0.0000000000000000000, -1.000000000000000000 ) ) ;
#122 = MECHANICAL_DESIGN_GEOMETRIC_PRESENTATION_REPRESENTATION (  '', ( #129 ), #82 ) ;
#123 = FILL_AREA_STYLE ('',( #124 ) ) ;
#124 = FILL_AREA_STYLE_COLOUR ( '', #126 ) ;
#125 =( NAMED_UNIT ( * ) SI_UNIT ( $, .STERADIAN. ) SOLID_ANGLE_UNIT ( ) );
#126 = COLOUR_RGB ( '',0.9568627450980391500, 0.9490196078431372100, 0.9607843137254902200 ) ;
#127 = FACE_OUTER_BOUND ( 'NONE', #53, .T. ) ;
#128 = PRESENTATION_LAYER_ASSIGNMENT (  '', '', ( #129 ) ) ;
#129 = STYLED_ITEM ( 'NONE', ( #75 ), #17 ) ;
#130 = VECTOR ( 'NONE', #69, 1000.000000000000000 ) ;
#131 = CARTESIAN_POINT ( 'NONE',  ( -15.00000000000000000, 1.836909530733565900E-015, 4.308132045400366600 ) ) ;
#132 = LINE ( 'NONE', #131, #130 ) ;
#133 = FILL_AREA_STYLE_COLOUR ( '', #68 ) ;
#134 = UNCERTAINTY_MEASURE_WITH_UNIT (LENGTH_MEASURE( 1.000000000000000100E-005 ), #107, 'distance_accuracy_value', 'NONE');
#135 =( NAMED_UNIT ( * ) SI_UNIT ( $, .STERADIAN. ) SOLID_ANGLE_UNIT ( ) );
#136 =( NAMED_UNIT ( * ) SI_UNIT ( $, .STERADIAN. ) SOLID_ANGLE_UNIT ( ) );
#137 =( LENGTH_UNIT ( ) NAMED_UNIT ( * ) SI_UNIT ( .MILLI., .METRE. ) );
#138 = MECHANICAL_DESIGN_GEOMETRIC_PRESENTATION_REPRESENTATION (  '', ( #143 ), #152 ) ;
#139 = PRESENTATION_LAYER_ASSIGNMENT (  '', '', ( #143 ) ) ;
#140 = SURFACE_SIDE_STYLE ('',( #141 ) ) ;
#141 = SURFACE_STYLE_FILL_AREA ( #147 ) ;
#142 =( GEOMETRIC_REPRESENTATION_CONTEXT ( 3 ) GLOBAL_UNCERTAINTY_ASSIGNED_CONTEXT ( ( #134 ) ) GLOBAL_UNIT_ASSIGNED_CONTEXT ( ( #107, #89, #135 ) ) REPRESENTATION_CONTEXT ( 'NONE', 'WORKASPACE' ) );
#143 = STYLED_ITEM ( 'NONE', ( #149 ), #38 ) ;
#144 = FACE_OUTER_BOUND ( 'NONE', #13, .T. ) ;
#145 =( NAMED_UNIT ( * ) PLANE_ANGLE_UNIT ( ) SI_UNIT ( $, .RADIAN. ) );
#146 =( LENGTH_UNIT ( ) NAMED_UNIT ( * ) SI_UNIT ( .MILLI., .METRE. ) );
#147 = FILL_AREA_STYLE ('',( #148 ) ) ;
#148 = FILL_AREA_STYLE_COLOUR ( '', #151 ) ;
#149 = PRESENTATION_STYLE_ASSIGNMENT (( #150 ) ) ;
#150 = SURFACE_STYLE_USAGE ( .BOTH. , #140 ) ;
#151 = COLOUR_RGB ( '',0.9568627450980391500, 0.9490196078431372100, 0.9607843137254902200 ) ;
#152 =( GEOMETRIC_REPRESENTATION_CONTEXT ( 3 ) GLOBAL_UNCERTAINTY_ASSIGNED_CONTEXT ( ( #153 ) ) GLOBAL_UNIT_ASSIGNED_CONTEXT ( ( #146, #145, #154 ) ) REPRESENTATION_CONTEXT ( 'NONE', 'WORKASPACE' ) );
#153 = UNCERTAINTY_MEASURE_WITH_UNIT (LENGTH_MEASURE( 1.000000000000000100E-005 ), #146, 'distance_accuracy_value', 'NONE');
#154 =( NAMED_UNIT ( * ) SI_UNIT ( $, .STERADIAN. ) SOLID_ANGLE_UNIT ( ) );
#155 = DIRECTION ( 'NONE',  ( 1.000000000000000000, 0.0000000000000000000, 0.0000000000000000000 ) ) ;
#156 = DIRECTION ( 'NONE',  ( 0.0000000000000000000, -0.0000000000000000000, 1.000000000000000000 ) ) ;
#157 = CARTESIAN_POINT ( 'NONE',  ( 0.0000000000000000000, 7.884628009085377400E-015, 1.310000000000005600 ) ) ;
#158 = CARTESIAN_POINT ( 'NONE',  ( 0.0000000000000000000, 15.00000000000004800, 0.4333653478553185500 ) ) ;
#159 = DIRECTION ( 'NONE',  ( 1.000000000000000000, 0.0000000000000000000, 0.0000000000000000000 ) ) ;
#160 = AXIS2_PLACEMENT_3D ( 'NONE', #167, #156, #155 ) ;
#161 = FACE_OUTER_BOUND ( 'NONE', #27, .T. ) ;
#162 = DIRECTION ( 'NONE',  ( 1.000000000000000000, 0.0000000000000000000, 0.0000000000000000000 ) ) ;
#163 =( NAMED_UNIT ( * ) PLANE_ANGLE_UNIT ( ) SI_UNIT ( $, .RADIAN. ) );
#164 = DIRECTION ( 'NONE',  ( -0.0000000000000000000, -0.0000000000000000000, 1.000000000000000000 ) ) ;
#165 = AXIS2_PLACEMENT_3D ( 'NONE', #192, #164, #159 ) ;
#166 = CIRCLE ( 'NONE', #165, 15.00000000000000200 ) ;
#167 = CARTESIAN_POINT ( 'NONE',  ( 0.0000000000000000000, 4.812861920649097600E-016, -1.310000000000000100 ) ) ;
#168 = CARTESIAN_POINT ( 'NONE',  ( 0.0000000000000000000, 0.0000000000000000000, -1.310000000000000500 ) ) ;
#169 =( LENGTH_UNIT ( ) NAMED_UNIT ( * ) SI_UNIT ( .MILLI., .METRE. ) );
#170 = MECHANICAL_DESIGN_GEOMETRIC_PRESENTATION_REPRESENTATION (  '', ( #181 ), #188 ) ;
#171 = PRESENTATION_LAYER_ASSIGNMENT (  '', '', ( #181 ) ) ;
#172 = DIRECTION ( 'NONE',  ( -1.000000000000000000, 0.0000000000000000000, 0.0000000000000000000 ) ) ;
#173 = CARTESIAN_POINT ( 'NONE',  ( 0.0000000000000000000, 0.0000000000000000000, 0.4333653478553181100 ) ) ;
#174 =( NAMED_UNIT ( * ) SI_UNIT ( $, .STERADIAN. ) SOLID_ANGLE_UNIT ( ) );
#175 = FILL_AREA_STYLE ('',( #200 ) ) ;
#176 = SURFACE_STYLE_USAGE ( .BOTH. , #177 ) ;
#177 = SURFACE_SIDE_STYLE ('',( #178 ) ) ;
#178 = SURFACE_STYLE_FILL_AREA ( #175 ) ;
#179 = COLOUR_RGB ( '',0.9568627450980391500, 0.9490196078431372100, 0.9607843137254902200 ) ;
#180 = SPHERICAL_SURFACE ( 'NONE', #184, 128.7700000000000100 ) ;
#181 = STYLED_ITEM ( 'NONE', ( #182 ), #41 ) ;
#182 = PRESENTATION_STYLE_ASSIGNMENT (( #176 ) ) ;
#183 = PLANE ( 'NONE',  #160 ) ;
#184 = AXIS2_PLACEMENT_3D ( 'NONE', #199, #172, #187 ) ;
#185 = CARTESIAN_POINT ( 'NONE',  ( -1.836909530733571800E-015, -15.00000000000004800, 0.4333653478553185500 ) ) ;
#186 = CARTESIAN_POINT ( 'NONE',  ( 15.00000000000000400, 0.0000000000000000000, 0.4333653478553181100 ) ) ;
#187 = DIRECTION ( 'NONE',  ( 0.0000000000000000000, 1.000000000000000000, 0.0000000000000000000 ) ) ;
#188 =( GEOMETRIC_REPRESENTATION_CONTEXT ( 3 ) GLOBAL_UNCERTAINTY_ASSIGNED_CONTEXT ( ( #193 ) ) GLOBAL_UNIT_ASSIGNED_CONTEXT ( ( #169, #163, #174 ) ) REPRESENTATION_CONTEXT ( 'NONE', 'WORKASPACE' ) );
#189 = DIRECTION ( 'NONE',  ( -0.0000000000000000000, -0.0000000000000000000, 1.000000000000000000 ) ) ;
#190 = AXIS2_PLACEMENT_3D ( 'NONE', #173, #189, #162 ) ;
#191 = CIRCLE ( 'NONE', #190, 15.00000000000000200 ) ;
#192 = CARTESIAN_POINT ( 'NONE',  ( 0.0000000000000000000, 0.0000000000000000000, 0.4333653478553181100 ) ) ;
#193 = UNCERTAINTY_MEASURE_WITH_UNIT (LENGTH_MEASURE( 1.000000000000000100E-005 ), #169, 'distance_accuracy_value', 'NONE');
#194 =( GEOMETRIC_REPRESENTATION_CONTEXT ( 3 ) GLOBAL_UNCERTAINTY_ASSIGNED_CONTEXT ( ( #11 ) ) GLOBAL_UNIT_ASSIGNED_CONTEXT ( ( #207, #229, #228 ) ) REPRESENTATION_CONTEXT ( 'NONE', 'WORKASPACE' ) );
#195 = DIRECTION ( 'NONE',  ( 1.000000000000000000, 0.0000000000000000000, 0.0000000000000000000 ) ) ;
#196 = DIRECTION ( 'NONE',  ( -0.0000000000000000000, -0.0000000000000000000, 1.000000000000000000 ) ) ;
#197 = AXIS2_PLACEMENT_3D ( 'NONE', #168, #196, #195 ) ;
#198 = CIRCLE ( 'NONE', #197, 15.00000000000000000 ) ;
#199 = CARTESIAN_POINT ( 'NONE',  ( 0.0000000000000000000, 0.0000000000000000000, -127.4600000000000200 ) ) ;
#200 = FILL_AREA_STYLE_COLOUR ( '', #179 ) ;
#201 = PRESENTATION_STYLE_ASSIGNMENT (( #202 ) ) ;
#202 = SURFACE_STYLE_USAGE ( .BOTH. , #216 ) ;
#203 = DIRECTION ( 'NONE',  ( -1.224606353822377300E-016, -1.000000000000000000, 0.0000000000000000000 ) ) ;
#204 = DIRECTION ( 'NONE',  ( -1.000000000000000000, 1.224606353822377300E-016, 0.0000000000000000000 ) ) ;
#205 = FACE_OUTER_BOUND ( 'NONE', #28, .T. ) ;
#206 = UNCERTAINTY_MEASURE_WITH_UNIT (LENGTH_MEASURE( 1.000000000000000100E-005 ), #227, 'distance_accuracy_value', 'NONE');
#207 =( LENGTH_UNIT ( ) NAMED_UNIT ( * ) SI_UNIT ( .MILLI., .METRE. ) );
#208 =( GEOMETRIC_REPRESENTATION_CONTEXT ( 3 ) GLOBAL_UNCERTAINTY_ASSIGNED_CONTEXT ( ( #206 ) ) GLOBAL_UNIT_ASSIGNED_CONTEXT ( ( #227, #226, #215 ) ) REPRESENTATION_CONTEXT ( 'NONE', 'WORKASPACE' ) );
#209 = FILL_AREA_STYLE_COLOUR ( '', #222 ) ;
#210 = DIRECTION ( 'NONE',  ( 0.0000000000000000000, 1.000000000000000000, 0.0000000000000000000 ) ) ;
#211 = DIRECTION ( 'NONE',  ( -1.000000000000000000, 0.0000000000000000000, 0.0000000000000000000 ) ) ;
#212 = AXIS2_PLACEMENT_3D ( 'NONE', #213, #211, #210 ) ;
#213 = CARTESIAN_POINT ( 'NONE',  ( 0.0000000000000000000, 0.0000000000000000000, -127.4600000000000200 ) ) ;
#214 = SPHERICAL_SURFACE ( 'NONE', #212, 128.7700000000000100 ) ;
#215 =( NAMED_UNIT ( * ) SI_UNIT ( $, .STERADIAN. ) SOLID_ANGLE_UNIT ( ) );
#216 = SURFACE_SIDE_STYLE ('',( #217 ) ) ;
#217 = SURFACE_STYLE_FILL_AREA ( #218 ) ;
#218 = FILL_AREA_STYLE ('',( #209 ) ) ;
#219 = PRESENTATION_LAYER_ASSIGNMENT (  '', '', ( #220 ) ) ;
#220 = STYLED_ITEM ( 'NONE', ( #201 ), #59 ) ;
#221 = MECHANICAL_DESIGN_GEOMETRIC_PRESENTATION_REPRESENTATION (  '', ( #220 ), #208 ) ;
#222 = COLOUR_RGB ( '',0.9568627450980391500, 0.9490196078431372100, 0.9607843137254902200 ) ;
#223 = CARTESIAN_POINT ( 'NONE',  ( 0.0000000000000000000, 0.0000000000000000000, -127.4600000000000200 ) ) ;
#224 = AXIS2_PLACEMENT_3D ( 'NONE', #223, #204, #203 ) ;
#225 = CIRCLE ( 'NONE', #224, 128.7700000000000100 ) ;
#226 =( NAMED_UNIT ( * ) PLANE_ANGLE_UNIT ( ) SI_UNIT ( $, .RADIAN. ) );
#227 =( LENGTH_UNIT ( ) NAMED_UNIT ( * ) SI_UNIT ( .MILLI., .METRE. ) );
#228 =( NAMED_UNIT ( * ) SI_UNIT ( $, .STERADIAN. ) SOLID_ANGLE_UNIT ( ) );
#229 =( NAMED_UNIT ( * ) PLANE_ANGLE_UNIT ( ) SI_UNIT ( $, .RADIAN. ) );
#230 = ADVANCED_BREP_SHAPE_REPRESENTATION ( '19314-E0W', ( #32, #261 ), #194 ) ;
#231 =( LENGTH_UNIT ( ) NAMED_UNIT ( * ) SI_UNIT ( .MILLI., .METRE. ) );
#232 = MECHANICAL_DESIGN_GEOMETRIC_PRESENTATION_REPRESENTATION (  '', ( #234 ), #252 ) ;
#233 = PRESENTATION_LAYER_ASSIGNMENT (  '', '', ( #234 ) ) ;
#234 = STYLED_ITEM ( 'NONE', ( #236 ), #230 ) ;
#235 =( NAMED_UNIT ( * ) PLANE_ANGLE_UNIT ( ) SI_UNIT ( $, .RADIAN. ) );
#236 = PRESENTATION_STYLE_ASSIGNMENT (( #237 ) ) ;
#237 = SURFACE_STYLE_USAGE ( .BOTH. , #238 ) ;
#238 = SURFACE_SIDE_STYLE ('',( #239 ) ) ;
#239 = SURFACE_STYLE_FILL_AREA ( #240 ) ;
#240 = FILL_AREA_STYLE ('',( #241 ) ) ;
#241 = FILL_AREA_STYLE_COLOUR ( '', #242 ) ;
#242 = COLOUR_RGB ( '',0.7960784313725489700, 0.8235294117647058400, 0.9372549019607843100 ) ;
#243 = UNCERTAINTY_MEASURE_WITH_UNIT (LENGTH_MEASURE( 1.000000000000000100E-005 ), #231, 'distance_accuracy_value', 'NONE');
#244 =( NAMED_UNIT ( * ) SI_UNIT ( $, .STERADIAN. ) SOLID_ANGLE_UNIT ( ) );
#245 = PRODUCT_RELATED_PRODUCT_CATEGORY ( 'part', '', ( #256 ) ) ;
#246 = PRODUCT_DEFINITION_FORMATION_WITH_SPECIFIED_SOURCE ( 'ANY', '', #256, .NOT_KNOWN. ) ;
#247 = PRODUCT_DEFINITION ( 'UNKNOWN', '', #246, #248 ) ;
#248 = PRODUCT_DEFINITION_CONTEXT ( 'detailed design', #255, 'design' ) ;
#249 = PRODUCT_DEFINITION_SHAPE ( 'NONE', 'NONE',  #247 ) ;
#250 = SHAPE_DEFINITION_REPRESENTATION ( #249, #230 ) ;
#251 = APPLICATION_CONTEXT ( 'automotive_design' ) ;
#252 =( GEOMETRIC_REPRESENTATION_CONTEXT ( 3 ) GLOBAL_UNCERTAINTY_ASSIGNED_CONTEXT ( ( #243 ) ) GLOBAL_UNIT_ASSIGNED_CONTEXT ( ( #231, #235, #244 ) ) REPRESENTATION_CONTEXT ( 'NONE', 'WORKASPACE' ) );
#253 = DIRECTION ( 'NONE',  ( 1.000000000000000000, 0.0000000000000000000, 0.0000000000000000000 ) ) ;
#254 = APPLICATION_PROTOCOL_DEFINITION ( 'draft international standard', 'automotive_design', 1998, #255 ) ;
#255 = APPLICATION_CONTEXT ( 'automotive_design' ) ;
#256 = PRODUCT ( '19314-E0W', '19314-E0W', '', ( #258 ) ) ;
#257 = DIRECTION ( 'NONE',  ( 0.0000000000000000000, 0.0000000000000000000, 1.000000000000000000 ) ) ;
#258 = PRODUCT_CONTEXT ( 'NONE', #251, 'mechanical' ) ;
#259 = APPLICATION_PROTOCOL_DEFINITION ( 'draft international standard', 'automotive_design', 1998, #251 ) ;
#260 = CARTESIAN_POINT ( 'NONE',  ( 0.0000000000000000000, 0.0000000000000000000, 0.0000000000000000000 ) ) ;
#261 = AXIS2_PLACEMENT_3D ( 'NONE', #260, #257, #253 ) ;
ENDSEC;
END-ISO-10303-21;
