ISO-10303-21;
HEADER;
FILE_DESCRIPTION (( 'STEP AP203' ),
    '1' );
FILE_NAME ('Web Model 17168.step',
    '2021-06-17T18:09:45',
    ( '' ),
    ( '' ),
    'SwSTEP 2.0',
    'SolidWorks 2018',
    '' );
FILE_SCHEMA (( 'CONFIG_CONTROL_DESIGN' ));
ENDSEC;

DATA;
#1 = CC_DESIGN_PERSON_AND_ORGANIZATION_ASSIGNMENT ( #62, #61, ( #166 ) ) ;
#2 = FACE_OUTER_BOUND ( 'NONE', #148, .T. ) ;
#3 = APPLICATION_PROTOCOL_DEFINITION ( 'international standard', 'config_control_design', 1994, #96 ) ;
#4 = MECHANICAL_CONTEXT ( 'NONE', #96, 'mechanical' ) ;
#5 = CLOSED_SHELL ( 'NONE', ( #167, #82, #108, #43 ) ) ;
#6 = LINE ( 'NONE', #49, #155 ) ;
#7 = DESIGN_CONTEXT ( 'detailed design', #47, 'design' ) ;
#8 = PERSON_AND_ORGANIZATION_ROLE ( 'design_supplier' ) ;
#9 = APPROVAL_DATE_TIME ( #100, #133 ) ;
#10 = AXIS2_PLACEMENT_3D ( 'NONE', #158, #63, #11 ) ;
#11 = DIRECTION ( 'NONE',  ( -1.000000000000000000, 0.000000000000000000, 0.000000000000000000 ) ) ;
#12 = CARTESIAN_POINT ( 'NONE',  ( 0.000000000000000000, 0.000000000000000000, 0.000000000000000000 ) ) ;
#13 = ORIENTED_EDGE ( 'NONE', *, *, #145, .F. ) ;
#14 = ORIENTED_EDGE ( 'NONE', *, *, #93, .F. ) ;
#15 = LOCAL_TIME ( 14, 9, 45.00000000000000000, #119 ) ;
#16 = DATE_AND_TIME ( #116, #55 ) ;
#17 = APPROVAL_ROLE ( '' ) ;
#18 = APPROVAL_STATUS ( 'not_yet_approved' ) ;
#19 = AXIS2_PLACEMENT_3D ( 'NONE', #81, #120, #41 ) ;
#20 = LOCAL_TIME ( 14, 9, 45.00000000000000000, #67 ) ;
#21 = CARTESIAN_POINT ( 'NONE',  ( -0.9842519685039370358, 0.000000000000000000, 0.000000000000000000 ) ) ;
#22 = DIRECTION ( 'NONE',  ( 1.000000000000000000, 0.000000000000000000, 0.000000000000000000 ) ) ;
#23 = PERSON_AND_ORGANIZATION ( #29, #72 ) ;
#24 = PRODUCT_DEFINITION ( 'UNKNOWN', '', #166, #7 ) ;
#25 = PRODUCT_RELATED_PRODUCT_CATEGORY ( 'detail', '', ( #60 ) ) ;
#26 = COORDINATED_UNIVERSAL_TIME_OFFSET ( 5, 0, .BEHIND. ) ;
#27 = CYLINDRICAL_SURFACE ( 'NONE', #37, 0.9842519685039370358 ) ;
#28 = ORIENTED_EDGE ( 'NONE', *, *, #93, .T. ) ;
#29 = PERSON ( 'UNSPECIFIED', 'UNSPECIFIED', 'UNSPECIFIED', ('UNSPECIFIED'), ('UNSPECIFIED'), ('UNSPECIFIED') ) ;
#30 = DATE_AND_TIME ( #152, #52 ) ;
#31 = FACE_OUTER_BOUND ( 'NONE', #85, .T. ) ;
#32 = ORIENTED_EDGE ( 'NONE', *, *, #165, .T. ) ;
#33 = CARTESIAN_POINT ( 'NONE',  ( 0.9842519685039370358, 1.205361022782827973E-16, 0.03937007874015747977 ) ) ;
#34 = DIRECTION ( 'NONE',  ( 1.000000000000000000, 0.000000000000000000, -0.000000000000000000 ) ) ;
#35 = CARTESIAN_POINT ( 'NONE',  ( -0.9842519685039370358, 0.000000000000000000, 0.03937007874015747977 ) ) ;
#36 = CARTESIAN_POINT ( 'NONE',  ( 0.9842519685039370358, 1.205361022782827973E-16, 0.000000000000000000 ) ) ;
#37 = AXIS2_PLACEMENT_3D ( 'NONE', #174, #140, #168 ) ;
#38 = ORIENTED_EDGE ( 'NONE', *, *, #45, .T. ) ;
#39 = PERSON_AND_ORGANIZATION ( #29, #72 ) ;
#40 = ORIENTED_EDGE ( 'NONE', *, *, #124, .T. ) ;
#41 = DIRECTION ( 'NONE',  ( 1.000000000000000000, 0.000000000000000000, 0.000000000000000000 ) ) ;
#42 = DATE_AND_TIME ( #132, #15 ) ;
#43 = ADVANCED_FACE ( 'NONE', ( #169 ), #101, .F. ) ;
#44 = APPROVAL_STATUS ( 'not_yet_approved' ) ;
#45 = EDGE_CURVE ( 'NONE', #76, #46, #77, .T. ) ;
#46 = VERTEX_POINT ( 'NONE', #35 ) ;
#47 = APPLICATION_CONTEXT ( 'configuration controlled 3d designs of mechanical parts and assemblies' ) ;
#48 = DIRECTION ( 'NONE',  ( 1.000000000000000000, 0.000000000000000000, 0.000000000000000000 ) ) ;
#49 = CARTESIAN_POINT ( 'NONE',  ( -0.9842519685039370358, 0.000000000000000000, 0.03937007874015747977 ) ) ;
#50 = CARTESIAN_POINT ( 'NONE',  ( 0.000000000000000000, 0.000000000000000000, 0.03937007874015747977 ) ) ;
#51 = UNCERTAINTY_MEASURE_WITH_UNIT (LENGTH_MEASURE( 1.000000000000000082E-05 ), #87, 'distance_accuracy_value', 'NONE');
#52 = LOCAL_TIME ( 14, 9, 45.00000000000000000, #125 ) ;
#53 = CC_DESIGN_DATE_AND_TIME_ASSIGNMENT ( #42, #121, ( #24 ) ) ;
#54 = CC_DESIGN_DATE_AND_TIME_ASSIGNMENT ( #30, #59, ( #99 ) ) ;
#55 = LOCAL_TIME ( 14, 9, 45.00000000000000000, #26 ) ;
#56 = CIRCLE ( 'NONE', #170, 0.9842519685039370358 ) ;
#57 = VERTEX_POINT ( 'NONE', #21 ) ;
#58 = PRODUCT_DEFINITION_SHAPE ( 'NONE', 'NONE',  #24 ) ;
#59 = DATE_TIME_ROLE ( 'classification_date' ) ;
#60 = PRODUCT ( 'Web Model 17168', 'Web Model 17168', '', ( #4 ) ) ;
#61 = PERSON_AND_ORGANIZATION_ROLE ( 'creator' ) ;
#62 = PERSON_AND_ORGANIZATION ( #29, #72 ) ;
#63 = DIRECTION ( 'NONE',  ( -0.000000000000000000, -0.000000000000000000, -1.000000000000000000 ) ) ;
#64 = DIRECTION ( 'NONE',  ( 0.000000000000000000, 0.000000000000000000, 1.000000000000000000 ) ) ;
#65 =( NAMED_UNIT ( * ) SI_UNIT ( $, .STERADIAN. ) SOLID_ANGLE_UNIT ( ) );
#66 = APPROVAL_PERSON_ORGANIZATION ( #88, #112, #122 ) ;
#67 = COORDINATED_UNIVERSAL_TIME_OFFSET ( 5, 0, .BEHIND. ) ;
#68 = PERSON_AND_ORGANIZATION ( #29, #72 ) ;
#69 = PERSON_AND_ORGANIZATION_ROLE ( 'design_owner' ) ;
#70 = AXIS2_PLACEMENT_3D ( 'NONE', #154, #111, #34 ) ;
#71 = CC_DESIGN_PERSON_AND_ORGANIZATION_ASSIGNMENT ( #164, #109, ( #24 ) ) ;
#72 = ORGANIZATION ( 'UNSPECIFIED', 'UNSPECIFIED', '' ) ;
#73 = AXIS2_PLACEMENT_3D ( 'NONE', #50, #143, #178 ) ;
#74 = DATE_AND_TIME ( #172, #83 ) ;
#75 = CC_DESIGN_APPROVAL ( #133, ( #24 ) ) ;
#76 = VERTEX_POINT ( 'NONE', #33 ) ;
#77 = CIRCLE ( 'NONE', #19, 0.9842519685039370358 ) ;
#78 = APPROVAL_DATE_TIME ( #16, #112 ) ;
#79 = ORIENTED_EDGE ( 'NONE', *, *, #124, .F. ) ;
#80 = CC_DESIGN_SECURITY_CLASSIFICATION ( #99, ( #166 ) ) ;
#81 = CARTESIAN_POINT ( 'NONE',  ( 0.000000000000000000, 0.000000000000000000, 0.03937007874015747977 ) ) ;
#82 = ADVANCED_FACE ( 'NONE', ( #31 ), #27, .T. ) ;
#83 = LOCAL_TIME ( 14, 9, 45.00000000000000000, #147 ) ;
#84 = APPROVAL_PERSON_ORGANIZATION ( #89, #133, #17 ) ;
#85 = EDGE_LOOP ( 'NONE', ( #14, #79, #104, #149 ) ) ;
#86 =( GEOMETRIC_REPRESENTATION_CONTEXT ( 3 ) GLOBAL_UNCERTAINTY_ASSIGNED_CONTEXT ( ( #51 ) ) GLOBAL_UNIT_ASSIGNED_CONTEXT ( ( #87, #159, #65 ) ) REPRESENTATION_CONTEXT ( 'NONE', 'WORKASPACE' ) );
#87 =( CONVERSION_BASED_UNIT ( 'INCH', #110 ) LENGTH_UNIT ( ) NAMED_UNIT ( #157 ) );
#88 = PERSON_AND_ORGANIZATION ( #29, #72 ) ;
#89 = PERSON_AND_ORGANIZATION ( #29, #72 ) ;
#90 = AXIS2_PLACEMENT_3D ( 'NONE', #103, #141, #22 ) ;
#91 = ORIENTED_EDGE ( 'NONE', *, *, #45, .F. ) ;
#92 = AXIS2_PLACEMENT_3D ( 'NONE', #123, #97, #137 ) ;
#93 = EDGE_CURVE ( 'NONE', #76, #151, #138, .T. ) ;
#94 = APPROVAL_DATE_TIME ( #74, #142 ) ;
#95 = CC_DESIGN_PERSON_AND_ORGANIZATION_ASSIGNMENT ( #23, #135, ( #99 ) ) ;
#96 = APPLICATION_CONTEXT ( 'configuration controlled 3d designs of mechanical parts and assemblies' ) ;
#97 = DIRECTION ( 'NONE',  ( 0.000000000000000000, 0.000000000000000000, 1.000000000000000000 ) ) ;
#98 = SECURITY_CLASSIFICATION_LEVEL ( 'unclassified' ) ;
#99 = SECURITY_CLASSIFICATION ( '', '', #98 ) ;
#100 = DATE_AND_TIME ( #150, #20 ) ;
#101 = PLANE ( 'NONE',  #70 ) ;
#102 = PLANE ( 'NONE',  #73 ) ;
#103 = CARTESIAN_POINT ( 'NONE',  ( 0.000000000000000000, 0.000000000000000000, 0.03937007874015747977 ) ) ;
#104 = ORIENTED_EDGE ( 'NONE', *, *, #115, .T. ) ;
#105 = FACE_OUTER_BOUND ( 'NONE', #131, .T. ) ;
#106 = EDGE_LOOP ( 'NONE', ( #13, #144 ) ) ;
#107 = PERSON_AND_ORGANIZATION ( #29, #72 ) ;
#108 = ADVANCED_FACE ( 'NONE', ( #2 ), #102, .T. ) ;
#109 = PERSON_AND_ORGANIZATION_ROLE ( 'creator' ) ;
#110 = LENGTH_MEASURE_WITH_UNIT ( LENGTH_MEASURE( 0.02539999999999999897 ), #127 );
#111 = DIRECTION ( 'NONE',  ( 0.000000000000000000, 0.000000000000000000, 1.000000000000000000 ) ) ;
#112 = APPROVAL ( #134, 'UNSPECIFIED' ) ;
#113 = DIRECTION ( 'NONE',  ( -0.000000000000000000, -0.000000000000000000, -1.000000000000000000 ) ) ;
#114 = ORIENTED_EDGE ( 'NONE', *, *, #115, .F. ) ;
#115 = EDGE_CURVE ( 'NONE', #46, #57, #6, .T. ) ;
#116 = CALENDAR_DATE ( 2021, 17, 6 ) ;
#117 = CC_DESIGN_APPROVAL ( #142, ( #166 ) ) ;
#118 = VECTOR ( 'NONE', #113, 39.37007874015748143 ) ;
#119 = COORDINATED_UNIVERSAL_TIME_OFFSET ( 5, 0, .BEHIND. ) ;
#120 = DIRECTION ( 'NONE',  ( 0.000000000000000000, 0.000000000000000000, 1.000000000000000000 ) ) ;
#121 = DATE_TIME_ROLE ( 'creation_date' ) ;
#122 = APPROVAL_ROLE ( '' ) ;
#123 = CARTESIAN_POINT ( 'NONE',  ( 0.000000000000000000, 0.000000000000000000, 0.000000000000000000 ) ) ;
#124 = EDGE_CURVE ( 'NONE', #46, #76, #162, .T. ) ;
#125 = COORDINATED_UNIVERSAL_TIME_OFFSET ( 5, 0, .BEHIND. ) ;
#126 = CIRCLE ( 'NONE', #156, 0.9842519685039370358 ) ;
#127 =( LENGTH_UNIT ( ) NAMED_UNIT ( * ) SI_UNIT ( $, .METRE. ) );
#128 = DIRECTION ( 'NONE',  ( -0.000000000000000000, -0.000000000000000000, -1.000000000000000000 ) ) ;
#129 = DIRECTION ( 'NONE',  ( 1.000000000000000000, 0.000000000000000000, 0.000000000000000000 ) ) ;
#130 = APPROVAL_PERSON_ORGANIZATION ( #107, #142, #171 ) ;
#131 = EDGE_LOOP ( 'NONE', ( #91, #28, #32, #114 ) ) ;
#132 = CALENDAR_DATE ( 2021, 17, 6 ) ;
#133 = APPROVAL ( #18, 'UNSPECIFIED' ) ;
#134 = APPROVAL_STATUS ( 'not_yet_approved' ) ;
#135 = PERSON_AND_ORGANIZATION_ROLE ( 'classification_officer' ) ;
#136 = CC_DESIGN_PERSON_AND_ORGANIZATION_ASSIGNMENT ( #39, #69, ( #60 ) ) ;
#137 = DIRECTION ( 'NONE',  ( 1.000000000000000000, 0.000000000000000000, 0.000000000000000000 ) ) ;
#138 = LINE ( 'NONE', #175, #118 ) ;
#139 = APPLICATION_PROTOCOL_DEFINITION ( 'international standard', 'config_control_design', 1994, #47 ) ;
#140 = DIRECTION ( 'NONE',  ( -0.000000000000000000, -0.000000000000000000, -1.000000000000000000 ) ) ;
#141 = DIRECTION ( 'NONE',  ( 0.000000000000000000, 0.000000000000000000, 1.000000000000000000 ) ) ;
#142 = APPROVAL ( #44, 'UNSPECIFIED' ) ;
#143 = DIRECTION ( 'NONE',  ( 0.000000000000000000, 0.000000000000000000, 1.000000000000000000 ) ) ;
#144 = ORIENTED_EDGE ( 'NONE', *, *, #165, .F. ) ;
#145 = EDGE_CURVE ( 'NONE', #57, #151, #126, .T. ) ;
#146 = ADVANCED_BREP_SHAPE_REPRESENTATION ( 'Web Model 17168', ( #153, #92 ), #86 ) ;
#147 = COORDINATED_UNIVERSAL_TIME_OFFSET ( 5, 0, .BEHIND. ) ;
#148 = EDGE_LOOP ( 'NONE', ( #40, #38 ) ) ;
#149 = ORIENTED_EDGE ( 'NONE', *, *, #145, .T. ) ;
#150 = CALENDAR_DATE ( 2021, 17, 6 ) ;
#151 = VERTEX_POINT ( 'NONE', #36 ) ;
#152 = CALENDAR_DATE ( 2021, 17, 6 ) ;
#153 = MANIFOLD_SOLID_BREP ( 'Boss-Extrude1', #5 ) ;
#154 = CARTESIAN_POINT ( 'NONE',  ( 0.000000000000000000, 0.000000000000000000, 0.000000000000000000 ) ) ;
#155 = VECTOR ( 'NONE', #128, 39.37007874015748143 ) ;
#156 = AXIS2_PLACEMENT_3D ( 'NONE', #160, #177, #129 ) ;
#157 = DIMENSIONAL_EXPONENTS ( 1.000000000000000000, 0.000000000000000000, 0.000000000000000000, 0.000000000000000000, 0.000000000000000000, 0.000000000000000000, 0.000000000000000000 ) ;
#158 = CARTESIAN_POINT ( 'NONE',  ( 0.000000000000000000, 0.000000000000000000, 0.03937007874015747977 ) ) ;
#159 =( NAMED_UNIT ( * ) PLANE_ANGLE_UNIT ( ) SI_UNIT ( $, .RADIAN. ) );
#160 = CARTESIAN_POINT ( 'NONE',  ( 0.000000000000000000, 0.000000000000000000, 0.000000000000000000 ) ) ;
#161 = SHAPE_DEFINITION_REPRESENTATION ( #58, #146 ) ;
#162 = CIRCLE ( 'NONE', #90, 0.9842519685039370358 ) ;
#163 = CC_DESIGN_PERSON_AND_ORGANIZATION_ASSIGNMENT ( #68, #8, ( #166 ) ) ;
#164 = PERSON_AND_ORGANIZATION ( #29, #72 ) ;
#165 = EDGE_CURVE ( 'NONE', #151, #57, #56, .T. ) ;
#166 = PRODUCT_DEFINITION_FORMATION_WITH_SPECIFIED_SOURCE ( 'ANY', '', #60, .NOT_KNOWN. ) ;
#167 = ADVANCED_FACE ( 'NONE', ( #105 ), #173, .T. ) ;
#168 = DIRECTION ( 'NONE',  ( -1.000000000000000000, 0.000000000000000000, 0.000000000000000000 ) ) ;
#169 = FACE_OUTER_BOUND ( 'NONE', #106, .T. ) ;
#170 = AXIS2_PLACEMENT_3D ( 'NONE', #12, #64, #48 ) ;
#171 = APPROVAL_ROLE ( '' ) ;
#172 = CALENDAR_DATE ( 2021, 17, 6 ) ;
#173 = CYLINDRICAL_SURFACE ( 'NONE', #10, 0.9842519685039370358 ) ;
#174 = CARTESIAN_POINT ( 'NONE',  ( 0.000000000000000000, 0.000000000000000000, 0.03937007874015747977 ) ) ;
#175 = CARTESIAN_POINT ( 'NONE',  ( 0.9842519685039370358, 1.205361022782827973E-16, 0.03937007874015747977 ) ) ;
#176 = CC_DESIGN_APPROVAL ( #112, ( #99 ) ) ;
#177 = DIRECTION ( 'NONE',  ( 0.000000000000000000, 0.000000000000000000, 1.000000000000000000 ) ) ;
#178 = DIRECTION ( 'NONE',  ( 1.000000000000000000, 0.000000000000000000, -0.000000000000000000 ) ) ;
ENDSEC;
END-ISO-10303-21;
