ISO-10303-21;
HEADER;
FILE_DESCRIPTION (( 'STEP AP203' ),
    '1' );
FILE_NAME ('Web Model 45310_84473.step',
    '2019-01-07T15:43:47',
    ( '' ),
    ( '' ),
    'SwSTEP 2.0',
    'SolidWorks 2016',
    '' );
FILE_SCHEMA (( 'CONFIG_CONTROL_DESIGN' ));
ENDSEC;

DATA;
#1 = DIRECTION ( 'NONE',  ( -0.0000000000000000000, -0.0000000000000000000, -1.000000000000000000 ) ) ;
#2 = CIRCLE ( 'NONE', #20, 7.500000000000000000 ) ;
#3 = VERTEX_POINT ( 'NONE', #88 ) ;
#4 = ORGANIZATION ( 'UNSPECIFIED', 'UNSPECIFIED', '' ) ;
#5 = PRODUCT_DEFINITION_FORMATION_WITH_SPECIFIED_SOURCE ( 'ANY', '', #140, .NOT_KNOWN. ) ;
#6 = DATE_AND_TIME ( #137, #79 ) ;
#7 = PERSON_AND_ORGANIZATION ( #58, #4 ) ;
#8 = DATE_AND_TIME ( #47, #125 ) ;
#9 = DIRECTION ( 'NONE',  ( -0.0000000000000000000, -0.0000000000000000000, -1.000000000000000000 ) ) ;
#10 = APPLICATION_PROTOCOL_DEFINITION ( 'international standard', 'config_control_design', 1994, #38 ) ;
#11 = ORIENTED_EDGE ( 'NONE', *, *, #120, .F. ) ;
#12 = DIRECTION ( 'NONE',  ( 1.000000000000000000, 0.0000000000000000000, 0.0000000000000000000 ) ) ;
#13 = CARTESIAN_POINT ( 'NONE',  ( 0.0000000000000000000, 0.0000000000000000000, -1.000000000000000000 ) ) ;
#14 = PRODUCT_DEFINITION_SHAPE ( 'NONE', 'NONE',  #87 ) ;
#15 = APPROVAL ( #26, 'UNSPECIFIED' ) ;
#16 = APPROVAL_DATE_TIME ( #132, #15 ) ;
#17 = ORIENTED_EDGE ( 'NONE', *, *, #92, .T. ) ;
#18 = VECTOR ( 'NONE', #172, 1000.000000000000000 ) ;
#19 = VERTEX_POINT ( 'NONE', #166 ) ;
#20 = AXIS2_PLACEMENT_3D ( 'NONE', #138, #50, #148 ) ;
#21 = PRODUCT_RELATED_PRODUCT_CATEGORY ( 'detail', '', ( #140 ) ) ;
#22 = CC_DESIGN_APPROVAL ( #15, ( #5 ) ) ;
#23 = APPLICATION_PROTOCOL_DEFINITION ( 'international standard', 'config_control_design', 1994, #111 ) ;
#24 = DIRECTION ( 'NONE',  ( 0.0000000000000000000, 0.0000000000000000000, 1.000000000000000000 ) ) ;
#25 =( NAMED_UNIT ( * ) SI_UNIT ( $, .STERADIAN. ) SOLID_ANGLE_UNIT ( ) );
#26 = APPROVAL_STATUS ( 'not_yet_approved' ) ;
#27 = CYLINDRICAL_SURFACE ( 'NONE', #169, 7.500000000000000000 ) ;
#28 = CC_DESIGN_PERSON_AND_ORGANIZATION_ASSIGNMENT ( #145, #40, ( #5 ) ) ;
#29 = APPROVAL_DATE_TIME ( #6, #142 ) ;
#30 = ORIENTED_EDGE ( 'NONE', *, *, #81, .T. ) ;
#31 = DIRECTION ( 'NONE',  ( 1.000000000000000000, 0.0000000000000000000, -0.0000000000000000000 ) ) ;
#32 = PERSON_AND_ORGANIZATION ( #58, #4 ) ;
#33 = APPROVAL_ROLE ( '' ) ;
#34 = ADVANCED_FACE ( 'NONE', ( #78 ), #73, .T. ) ;
#35 = PERSON_AND_ORGANIZATION_ROLE ( 'design_supplier' ) ;
#36 = FACE_OUTER_BOUND ( 'NONE', #62, .T. ) ;
#37 = ADVANCED_FACE ( 'NONE', ( #36 ), #27, .T. ) ;
#38 = APPLICATION_CONTEXT ( 'configuration controlled 3d designs of mechanical parts and assemblies' ) ;
#39 = CALENDAR_DATE ( 2019, 7, 1 ) ;
#40 = PERSON_AND_ORGANIZATION_ROLE ( 'creator' ) ;
#41 =( NAMED_UNIT ( * ) PLANE_ANGLE_UNIT ( ) SI_UNIT ( $, .RADIAN. ) );
#42 = AXIS2_PLACEMENT_3D ( 'NONE', #160, #66, #12 ) ;
#43 = PERSON_AND_ORGANIZATION ( #58, #4 ) ;
#44 = EDGE_LOOP ( 'NONE', ( #84, #135 ) ) ;
#45 = SHAPE_DEFINITION_REPRESENTATION ( #14, #94 ) ;
#46 = EDGE_CURVE ( 'NONE', #19, #3, #2, .T. ) ;
#47 = CALENDAR_DATE ( 2019, 7, 1 ) ;
#48 = CIRCLE ( 'NONE', #106, 7.500000000000000000 ) ;
#49 = COORDINATED_UNIVERSAL_TIME_OFFSET ( 5, 0, .BEHIND. ) ;
#50 = DIRECTION ( 'NONE',  ( 0.0000000000000000000, 0.0000000000000000000, 1.000000000000000000 ) ) ;
#51 = AXIS2_PLACEMENT_3D ( 'NONE', #139, #150, #80 ) ;
#52 = LINE ( 'NONE', #63, #104 ) ;
#53 = DIRECTION ( 'NONE',  ( 1.000000000000000000, 0.0000000000000000000, 0.0000000000000000000 ) ) ;
#54 = EDGE_LOOP ( 'NONE', ( #85, #156 ) ) ;
#55 = APPROVAL_ROLE ( '' ) ;
#56 = APPROVAL_STATUS ( 'not_yet_approved' ) ;
#57 = EDGE_CURVE ( 'NONE', #144, #96, #168, .T. ) ;
#58 = PERSON ( 'UNSPECIFIED', 'UNSPECIFIED', 'UNSPECIFIED', ('UNSPECIFIED'), ('UNSPECIFIED'), ('UNSPECIFIED') ) ;
#59 = ORIENTED_EDGE ( 'NONE', *, *, #119, .F. ) ;
#60 = COORDINATED_UNIVERSAL_TIME_OFFSET ( 5, 0, .BEHIND. ) ;
#61 = APPROVAL_DATE_TIME ( #158, #64 ) ;
#62 = EDGE_LOOP ( 'NONE', ( #103, #68, #165, #17 ) ) ;
#63 = CARTESIAN_POINT ( 'NONE',  ( 7.500000000000000000, 9.184850993605147900E-016, 1.000000000000000000 ) ) ;
#64 = APPROVAL ( #56, 'UNSPECIFIED' ) ;
#65 = PERSON_AND_ORGANIZATION ( #58, #4 ) ;
#66 = DIRECTION ( 'NONE',  ( 0.0000000000000000000, 0.0000000000000000000, 1.000000000000000000 ) ) ;
#67 = DIRECTION ( 'NONE',  ( -1.000000000000000000, 0.0000000000000000000, 0.0000000000000000000 ) ) ;
#68 = ORIENTED_EDGE ( 'NONE', *, *, #46, .F. ) ;
#69 = CC_DESIGN_PERSON_AND_ORGANIZATION_ASSIGNMENT ( #7, #114, ( #140 ) ) ;
#70 = CARTESIAN_POINT ( 'NONE',  ( 0.0000000000000000000, 0.0000000000000000000, 1.000000000000000000 ) ) ;
#71 = CC_DESIGN_SECURITY_CLASSIFICATION ( #113, ( #5 ) ) ;
#72 = COORDINATED_UNIVERSAL_TIME_OFFSET ( 5, 0, .BEHIND. ) ;
#73 = PLANE ( 'NONE',  #146 ) ;
#74 = DATE_AND_TIME ( #39, #151 ) ;
#75 = DIRECTION ( 'NONE',  ( 1.000000000000000000, 0.0000000000000000000, 0.0000000000000000000 ) ) ;
#76 = AXIS2_PLACEMENT_3D ( 'NONE', #108, #24, #53 ) ;
#77 = PERSON_AND_ORGANIZATION_ROLE ( 'creator' ) ;
#78 = FACE_OUTER_BOUND ( 'NONE', #54, .T. ) ;
#79 = LOCAL_TIME ( 10, 43, 47.00000000000000000, #49 ) ;
#80 = DIRECTION ( 'NONE',  ( 1.000000000000000000, 0.0000000000000000000, -0.0000000000000000000 ) ) ;
#81 = EDGE_CURVE ( 'NONE', #3, #144, #52, .T. ) ;
#82 = EDGE_LOOP ( 'NONE', ( #59, #30, #97, #11 ) ) ;
#83 = CC_DESIGN_PERSON_AND_ORGANIZATION_ASSIGNMENT ( #32, #162, ( #113 ) ) ;
#84 = ORIENTED_EDGE ( 'NONE', *, *, #92, .F. ) ;
#85 = ORIENTED_EDGE ( 'NONE', *, *, #46, .T. ) ;
#86 = FACE_OUTER_BOUND ( 'NONE', #44, .T. ) ;
#87 = PRODUCT_DEFINITION ( 'UNKNOWN', '', #5, #91 ) ;
#88 = CARTESIAN_POINT ( 'NONE',  ( 7.500000000000000000, 9.184850993605147900E-016, 1.000000000000000000 ) ) ;
#89 = CLOSED_SHELL ( 'NONE', ( #121, #37, #34, #126 ) ) ;
#90 = CIRCLE ( 'NONE', #42, 7.500000000000000000 ) ;
#91 = DESIGN_CONTEXT ( 'detailed design', #111, 'design' ) ;
#92 = EDGE_CURVE ( 'NONE', #96, #144, #48, .T. ) ;
#93 = DIRECTION ( 'NONE',  ( -1.000000000000000000, 0.0000000000000000000, 0.0000000000000000000 ) ) ;
#94 = ADVANCED_BREP_SHAPE_REPRESENTATION ( 'Web Model 45310_84473', ( #123, #136 ), #130 ) ;
#95 = CARTESIAN_POINT ( 'NONE',  ( 0.0000000000000000000, 0.0000000000000000000, 0.0000000000000000000 ) ) ;
#96 = VERTEX_POINT ( 'NONE', #124 ) ;
#97 = ORIENTED_EDGE ( 'NONE', *, *, #57, .T. ) ;
#98 = CARTESIAN_POINT ( 'NONE',  ( 0.0000000000000000000, 0.0000000000000000000, 1.000000000000000000 ) ) ;
#99 = APPROVAL_PERSON_ORGANIZATION ( #115, #15, #55 ) ;
#100 = DATE_TIME_ROLE ( 'classification_date' ) ;
#101 =( LENGTH_UNIT ( ) NAMED_UNIT ( * ) SI_UNIT ( .MILLI., .METRE. ) );
#102 = LOCAL_TIME ( 10, 43, 47.00000000000000000, #147 ) ;
#103 = ORIENTED_EDGE ( 'NONE', *, *, #81, .F. ) ;
#104 = VECTOR ( 'NONE', #9, 1000.000000000000000 ) ;
#105 = COORDINATED_UNIVERSAL_TIME_OFFSET ( 5, 0, .BEHIND. ) ;
#106 = AXIS2_PLACEMENT_3D ( 'NONE', #13, #159, #75 ) ;
#107 = UNCERTAINTY_MEASURE_WITH_UNIT (LENGTH_MEASURE( 1.000000000000000100E-005 ), #101, 'distance_accuracy_value', 'NONE');
#108 = CARTESIAN_POINT ( 'NONE',  ( 0.0000000000000000000, 0.0000000000000000000, -1.000000000000000000 ) ) ;
#109 = PLANE ( 'NONE',  #51 ) ;
#110 = CC_DESIGN_APPROVAL ( #142, ( #87 ) ) ;
#111 = APPLICATION_CONTEXT ( 'configuration controlled 3d designs of mechanical parts and assemblies' ) ;
#112 = DIRECTION ( 'NONE',  ( 0.0000000000000000000, 0.0000000000000000000, 1.000000000000000000 ) ) ;
#113 = SECURITY_CLASSIFICATION ( '', '', #174 ) ;
#114 = PERSON_AND_ORGANIZATION_ROLE ( 'design_owner' ) ;
#115 = PERSON_AND_ORGANIZATION ( #58, #4 ) ;
#116 = APPROVAL_STATUS ( 'not_yet_approved' ) ;
#117 = CALENDAR_DATE ( 2019, 7, 1 ) ;
#118 = CC_DESIGN_APPROVAL ( #64, ( #113 ) ) ;
#119 = EDGE_CURVE ( 'NONE', #3, #19, #90, .T. ) ;
#120 = EDGE_CURVE ( 'NONE', #19, #96, #128, .T. ) ;
#121 = ADVANCED_FACE ( 'NONE', ( #171 ), #157, .T. ) ;
#122 = PERSON_AND_ORGANIZATION ( #58, #4 ) ;
#123 = MANIFOLD_SOLID_BREP ( 'Boss-Extrude1', #89 ) ;
#124 = CARTESIAN_POINT ( 'NONE',  ( -7.500000000000000000, 0.0000000000000000000, -1.000000000000000000 ) ) ;
#125 = LOCAL_TIME ( 10, 43, 47.00000000000000000, #105 ) ;
#126 = ADVANCED_FACE ( 'NONE', ( #86 ), #109, .F. ) ;
#127 = APPROVAL_ROLE ( '' ) ;
#128 = LINE ( 'NONE', #149, #18 ) ;
#129 = DATE_TIME_ROLE ( 'creation_date' ) ;
#130 =( GEOMETRIC_REPRESENTATION_CONTEXT ( 3 ) GLOBAL_UNCERTAINTY_ASSIGNED_CONTEXT ( ( #107 ) ) GLOBAL_UNIT_ASSIGNED_CONTEXT ( ( #101, #41, #25 ) ) REPRESENTATION_CONTEXT ( 'NONE', 'WORKASPACE' ) );
#131 = DIRECTION ( 'NONE',  ( 1.000000000000000000, 0.0000000000000000000, 0.0000000000000000000 ) ) ;
#132 = DATE_AND_TIME ( #161, #175 ) ;
#133 = CC_DESIGN_PERSON_AND_ORGANIZATION_ASSIGNMENT ( #154, #35, ( #5 ) ) ;
#134 = APPROVAL_PERSON_ORGANIZATION ( #122, #142, #33 ) ;
#135 = ORIENTED_EDGE ( 'NONE', *, *, #57, .F. ) ;
#136 = AXIS2_PLACEMENT_3D ( 'NONE', #95, #112, #131 ) ;
#137 = CALENDAR_DATE ( 2019, 7, 1 ) ;
#138 = CARTESIAN_POINT ( 'NONE',  ( 0.0000000000000000000, 0.0000000000000000000, 1.000000000000000000 ) ) ;
#139 = CARTESIAN_POINT ( 'NONE',  ( 0.0000000000000000000, 0.0000000000000000000, -1.000000000000000000 ) ) ;
#140 = PRODUCT ( 'Web Model 45310_84473', 'Web Model 45310_84473', '', ( #141 ) ) ;
#141 = MECHANICAL_CONTEXT ( 'NONE', #38, 'mechanical' ) ;
#142 = APPROVAL ( #116, 'UNSPECIFIED' ) ;
#143 = CC_DESIGN_DATE_AND_TIME_ASSIGNMENT ( #8, #100, ( #113 ) ) ;
#144 = VERTEX_POINT ( 'NONE', #173 ) ;
#145 = PERSON_AND_ORGANIZATION ( #58, #4 ) ;
#146 = AXIS2_PLACEMENT_3D ( 'NONE', #70, #170, #31 ) ;
#147 = COORDINATED_UNIVERSAL_TIME_OFFSET ( 5, 0, .BEHIND. ) ;
#148 = DIRECTION ( 'NONE',  ( 1.000000000000000000, 0.0000000000000000000, 0.0000000000000000000 ) ) ;
#149 = CARTESIAN_POINT ( 'NONE',  ( -7.500000000000000000, 0.0000000000000000000, 1.000000000000000000 ) ) ;
#150 = DIRECTION ( 'NONE',  ( 0.0000000000000000000, 0.0000000000000000000, 1.000000000000000000 ) ) ;
#151 = LOCAL_TIME ( 10, 43, 47.00000000000000000, #72 ) ;
#152 = APPROVAL_PERSON_ORGANIZATION ( #65, #64, #127 ) ;
#153 = CC_DESIGN_PERSON_AND_ORGANIZATION_ASSIGNMENT ( #43, #77, ( #87 ) ) ;
#154 = PERSON_AND_ORGANIZATION ( #58, #4 ) ;
#155 = CARTESIAN_POINT ( 'NONE',  ( 0.0000000000000000000, 0.0000000000000000000, 1.000000000000000000 ) ) ;
#156 = ORIENTED_EDGE ( 'NONE', *, *, #119, .T. ) ;
#157 = CYLINDRICAL_SURFACE ( 'NONE', #164, 7.500000000000000000 ) ;
#158 = DATE_AND_TIME ( #117, #102 ) ;
#159 = DIRECTION ( 'NONE',  ( 0.0000000000000000000, 0.0000000000000000000, 1.000000000000000000 ) ) ;
#160 = CARTESIAN_POINT ( 'NONE',  ( 0.0000000000000000000, 0.0000000000000000000, 1.000000000000000000 ) ) ;
#161 = CALENDAR_DATE ( 2019, 7, 1 ) ;
#162 = PERSON_AND_ORGANIZATION_ROLE ( 'classification_officer' ) ;
#163 = CC_DESIGN_DATE_AND_TIME_ASSIGNMENT ( #74, #129, ( #87 ) ) ;
#164 = AXIS2_PLACEMENT_3D ( 'NONE', #98, #1, #67 ) ;
#165 = ORIENTED_EDGE ( 'NONE', *, *, #120, .T. ) ;
#166 = CARTESIAN_POINT ( 'NONE',  ( -7.500000000000000000, 0.0000000000000000000, 1.000000000000000000 ) ) ;
#167 = DIRECTION ( 'NONE',  ( -0.0000000000000000000, -0.0000000000000000000, -1.000000000000000000 ) ) ;
#168 = CIRCLE ( 'NONE', #76, 7.500000000000000000 ) ;
#169 = AXIS2_PLACEMENT_3D ( 'NONE', #155, #167, #93 ) ;
#170 = DIRECTION ( 'NONE',  ( 0.0000000000000000000, 0.0000000000000000000, 1.000000000000000000 ) ) ;
#171 = FACE_OUTER_BOUND ( 'NONE', #82, .T. ) ;
#172 = DIRECTION ( 'NONE',  ( -0.0000000000000000000, -0.0000000000000000000, -1.000000000000000000 ) ) ;
#173 = CARTESIAN_POINT ( 'NONE',  ( 7.500000000000000000, 9.184850993605147900E-016, -1.000000000000000000 ) ) ;
#174 = SECURITY_CLASSIFICATION_LEVEL ( 'unclassified' ) ;
#175 = LOCAL_TIME ( 10, 43, 47.00000000000000000, #60 ) ;
ENDSEC;
END-ISO-10303-21;
