ISO-10303-21;
HEADER;
FILE_DESCRIPTION (( 'STEP AP203' ),
    '1' );
FILE_NAME ('Web Model 43636_16009.step',
    '2020-10-21T18:27:09',
    ( '' ),
    ( '' ),
    'SwSTEP 2.0',
    'SolidWorks 2018',
    '' );
FILE_SCHEMA (( 'CONFIG_CONTROL_DESIGN' ));
ENDSEC;

DATA;
#1 = PERSON_AND_ORGANIZATION_ROLE ( 'classification_officer' ) ;
#2 = ADVANCED_FACE ( 'NONE', ( #42 ), #73, .T. ) ;
#3 = SECURITY_CLASSIFICATION ( '', '', #83 ) ;
#4 = COORDINATED_UNIVERSAL_TIME_OFFSET ( 5, 0, .BEHIND. ) ;
#5 = AXIS2_PLACEMENT_3D ( 'NONE', #106, #104, #49 ) ;
#6 = LOCAL_TIME ( 14, 27, 9.000000000000000000, #20 ) ;
#7 = CIRCLE ( 'NONE', #48, 12.69999999999999929 ) ;
#8 = APPROVAL_PERSON_ORGANIZATION ( #147, #132, #126 ) ;
#9 = DATE_TIME_ROLE ( 'classification_date' ) ;
#10 = ORIENTED_EDGE ( 'NONE', *, *, #30, .F. ) ;
#11 = CIRCLE ( 'NONE', #158, 12.69999999999999929 ) ;
#12 =( NAMED_UNIT ( * ) PLANE_ANGLE_UNIT ( ) SI_UNIT ( $, .RADIAN. ) );
#13 = PERSON_AND_ORGANIZATION_ROLE ( 'creator' ) ;
#14 = COORDINATED_UNIVERSAL_TIME_OFFSET ( 5, 0, .BEHIND. ) ;
#15 = PERSON_AND_ORGANIZATION ( #80, #39 ) ;
#16 = APPROVAL_ROLE ( '' ) ;
#17 = MANIFOLD_SOLID_BREP ( 'Boss-Extrude1', #75 ) ;
#18 = APPROVAL_PERSON_ORGANIZATION ( #51, #118, #16 ) ;
#19 = ORIENTED_EDGE ( 'NONE', *, *, #96, .T. ) ;
#20 = COORDINATED_UNIVERSAL_TIME_OFFSET ( 5, 0, .BEHIND. ) ;
#21 = AXIS2_PLACEMENT_3D ( 'NONE', #125, #140, #64 ) ;
#22 = CALENDAR_DATE ( 2020, 21, 10 ) ;
#23 = SHAPE_DEFINITION_REPRESENTATION ( #131, #121 ) ;
#24 = PERSON_AND_ORGANIZATION ( #80, #39 ) ;
#25 = CARTESIAN_POINT ( 'NONE',  ( 0.0000000000000000000, 0.0000000000000000000, 2.250000000000000000 ) ) ;
#26 = AXIS2_PLACEMENT_3D ( 'NONE', #45, #112, #110 ) ;
#27 = FACE_OUTER_BOUND ( 'NONE', #40, .T. ) ;
#28 = DIRECTION ( 'NONE',  ( 0.0000000000000000000, 0.0000000000000000000, 1.000000000000000000 ) ) ;
#29 = UNCERTAINTY_MEASURE_WITH_UNIT (LENGTH_MEASURE( 1.000000000000000082E-05 ), #172, 'distance_accuracy_value', 'NONE');
#30 = EDGE_CURVE ( 'NONE', #163, #139, #120, .T. ) ;
#31 = EDGE_LOOP ( 'NONE', ( #137, #151, #145, #149 ) ) ;
#32 = CARTESIAN_POINT ( 'NONE',  ( -12.69999999999999929, 0.0000000000000000000, 0.0000000000000000000 ) ) ;
#33 = CARTESIAN_POINT ( 'NONE',  ( 0.0000000000000000000, 0.0000000000000000000, 2.250000000000000000 ) ) ;
#34 = PRODUCT_DEFINITION ( 'UNKNOWN', '', #127, #166 ) ;
#35 = DIRECTION ( 'NONE',  ( 0.0000000000000000000, 0.0000000000000000000, 1.000000000000000000 ) ) ;
#36 = CALENDAR_DATE ( 2020, 21, 10 ) ;
#37 = PERSON_AND_ORGANIZATION ( #80, #39 ) ;
#38 = CC_DESIGN_DATE_AND_TIME_ASSIGNMENT ( #74, #98, ( #34 ) ) ;
#39 = ORGANIZATION ( 'UNSPECIFIED', 'UNSPECIFIED', '' ) ;
#40 = EDGE_LOOP ( 'NONE', ( #10, #161 ) ) ;
#41 = LOCAL_TIME ( 14, 27, 9.000000000000000000, #4 ) ;
#42 = FACE_OUTER_BOUND ( 'NONE', #70, .T. ) ;
#43 = CARTESIAN_POINT ( 'NONE',  ( 0.0000000000000000000, 0.0000000000000000000, 0.0000000000000000000 ) ) ;
#44 = DIRECTION ( 'NONE',  ( 1.000000000000000000, 0.0000000000000000000, -0.0000000000000000000 ) ) ;
#45 = CARTESIAN_POINT ( 'NONE',  ( 0.0000000000000000000, 0.0000000000000000000, 0.0000000000000000000 ) ) ;
#46 = CC_DESIGN_PERSON_AND_ORGANIZATION_ASSIGNMENT ( #167, #66, ( #127 ) ) ;
#47 = CALENDAR_DATE ( 2020, 21, 10 ) ;
#48 = AXIS2_PLACEMENT_3D ( 'NONE', #111, #138, #124 ) ;
#49 = DIRECTION ( 'NONE',  ( -1.000000000000000000, 0.0000000000000000000, 0.0000000000000000000 ) ) ;
#50 = VERTEX_POINT ( 'NONE', #152 ) ;
#51 = PERSON_AND_ORGANIZATION ( #80, #39 ) ;
#52 = PERSON_AND_ORGANIZATION_ROLE ( 'design_owner' ) ;
#53 = CARTESIAN_POINT ( 'NONE',  ( 0.0000000000000000000, 0.0000000000000000000, 2.250000000000000000 ) ) ;
#54 = CALENDAR_DATE ( 2020, 21, 10 ) ;
#55 = ORIENTED_EDGE ( 'NONE', *, *, #68, .T. ) ;
#56 = DATE_AND_TIME ( #22, #79 ) ;
#57 = APPROVAL_DATE_TIME ( #69, #118 ) ;
#58 = CARTESIAN_POINT ( 'NONE',  ( 12.69999999999999929, 1.555301434917138433E-15, 2.250000000000000000 ) ) ;
#59 = DIRECTION ( 'NONE',  ( 0.0000000000000000000, 0.0000000000000000000, 1.000000000000000000 ) ) ;
#60 = ORIENTED_EDGE ( 'NONE', *, *, #103, .F. ) ;
#61 = VECTOR ( 'NONE', #89, 1000.000000000000000 ) ;
#62 = DIRECTION ( 'NONE',  ( -1.000000000000000000, 0.0000000000000000000, 0.0000000000000000000 ) ) ;
#63 = PRODUCT ( 'Web Model 43636_16009', 'Web Model 43636_16009', '', ( #128 ) ) ;
#64 = DIRECTION ( 'NONE',  ( 1.000000000000000000, 0.0000000000000000000, 0.0000000000000000000 ) ) ;
#65 = APPROVAL_STATUS ( 'not_yet_approved' ) ;
#66 = PERSON_AND_ORGANIZATION_ROLE ( 'design_supplier' ) ;
#67 = CC_DESIGN_DATE_AND_TIME_ASSIGNMENT ( #56, #9, ( #3 ) ) ;
#68 = EDGE_CURVE ( 'NONE', #50, #139, #94, .T. ) ;
#69 = DATE_AND_TIME ( #54, #165 ) ;
#70 = EDGE_LOOP ( 'NONE', ( #117, #19 ) ) ;
#71 =( GEOMETRIC_REPRESENTATION_CONTEXT ( 3 ) GLOBAL_UNCERTAINTY_ASSIGNED_CONTEXT ( ( #29 ) ) GLOBAL_UNIT_ASSIGNED_CONTEXT ( ( #172, #12, #159 ) ) REPRESENTATION_CONTEXT ( 'NONE', 'WORKASPACE' ) );
#72 = CC_DESIGN_APPROVAL ( #132, ( #34 ) ) ;
#73 = PLANE ( 'NONE',  #146 ) ;
#74 = DATE_AND_TIME ( #142, #41 ) ;
#75 = CLOSED_SHELL ( 'NONE', ( #91, #108, #2, #129 ) ) ;
#76 = EDGE_CURVE ( 'NONE', #139, #163, #11, .T. ) ;
#77 = CARTESIAN_POINT ( 'NONE',  ( -12.69999999999999929, 0.0000000000000000000, 2.250000000000000000 ) ) ;
#78 = DIRECTION ( 'NONE',  ( -0.0000000000000000000, -0.0000000000000000000, -1.000000000000000000 ) ) ;
#79 = LOCAL_TIME ( 14, 27, 9.000000000000000000, #164 ) ;
#80 = PERSON ( 'UNSPECIFIED', 'UNSPECIFIED', 'UNSPECIFIED', ('UNSPECIFIED'), ('UNSPECIFIED'), ('UNSPECIFIED') ) ;
#81 = APPLICATION_CONTEXT ( 'configuration controlled 3d designs of mechanical parts and assemblies' ) ;
#82 = APPROVAL_DATE_TIME ( #116, #132 ) ;
#83 = SECURITY_CLASSIFICATION_LEVEL ( 'unclassified' ) ;
#84 = EDGE_LOOP ( 'NONE', ( #119, #55, #113, #60 ) ) ;
#85 = VERTEX_POINT ( 'NONE', #77 ) ;
#86 = APPROVAL_PERSON_ORGANIZATION ( #24, #130, #175 ) ;
#87 = CYLINDRICAL_SURFACE ( 'NONE', #144, 12.69999999999999929 ) ;
#88 = PLANE ( 'NONE',  #26 ) ;
#89 = DIRECTION ( 'NONE',  ( -0.0000000000000000000, -0.0000000000000000000, -1.000000000000000000 ) ) ;
#90 = APPROVAL_STATUS ( 'not_yet_approved' ) ;
#91 = ADVANCED_FACE ( 'NONE', ( #148 ), #95, .T. ) ;
#92 = DIRECTION ( 'NONE',  ( 0.0000000000000000000, 0.0000000000000000000, 1.000000000000000000 ) ) ;
#93 = PERSON_AND_ORGANIZATION ( #80, #39 ) ;
#94 = LINE ( 'NONE', #58, #133 ) ;
#95 = CYLINDRICAL_SURFACE ( 'NONE', #5, 12.69999999999999929 ) ;
#96 = EDGE_CURVE ( 'NONE', #50, #85, #156, .T. ) ;
#97 = APPROVAL_STATUS ( 'not_yet_approved' ) ;
#98 = DATE_TIME_ROLE ( 'creation_date' ) ;
#99 = CC_DESIGN_APPROVAL ( #130, ( #127 ) ) ;
#100 = LINE ( 'NONE', #162, #61 ) ;
#101 = PERSON_AND_ORGANIZATION ( #80, #39 ) ;
#102 = EDGE_CURVE ( 'NONE', #85, #50, #7, .T. ) ;
#103 = EDGE_CURVE ( 'NONE', #85, #163, #100, .T. ) ;
#104 = DIRECTION ( 'NONE',  ( -0.0000000000000000000, -0.0000000000000000000, -1.000000000000000000 ) ) ;
#105 = CC_DESIGN_PERSON_AND_ORGANIZATION_ASSIGNMENT ( #93, #1, ( #3 ) ) ;
#106 = CARTESIAN_POINT ( 'NONE',  ( 0.0000000000000000000, 0.0000000000000000000, 2.250000000000000000 ) ) ;
#107 = DIRECTION ( 'NONE',  ( 1.000000000000000000, 0.0000000000000000000, 0.0000000000000000000 ) ) ;
#108 = ADVANCED_FACE ( 'NONE', ( #122 ), #87, .T. ) ;
#109 = APPLICATION_PROTOCOL_DEFINITION ( 'international standard', 'config_control_design', 1994, #141 ) ;
#110 = DIRECTION ( 'NONE',  ( 1.000000000000000000, 0.0000000000000000000, -0.0000000000000000000 ) ) ;
#111 = CARTESIAN_POINT ( 'NONE',  ( 0.0000000000000000000, 0.0000000000000000000, 2.250000000000000000 ) ) ;
#112 = DIRECTION ( 'NONE',  ( 0.0000000000000000000, 0.0000000000000000000, 1.000000000000000000 ) ) ;
#113 = ORIENTED_EDGE ( 'NONE', *, *, #76, .T. ) ;
#114 = APPROVAL_DATE_TIME ( #170, #130 ) ;
#115 = CC_DESIGN_APPROVAL ( #118, ( #3 ) ) ;
#116 = DATE_AND_TIME ( #47, #6 ) ;
#117 = ORIENTED_EDGE ( 'NONE', *, *, #102, .T. ) ;
#118 = APPROVAL ( #97, 'UNSPECIFIED' ) ;
#119 = ORIENTED_EDGE ( 'NONE', *, *, #96, .F. ) ;
#120 = CIRCLE ( 'NONE', #135, 12.69999999999999929 ) ;
#121 = ADVANCED_BREP_SHAPE_REPRESENTATION ( 'Web Model 43636_16009', ( #17, #21 ), #71 ) ;
#122 = FACE_OUTER_BOUND ( 'NONE', #31, .T. ) ;
#123 = CC_DESIGN_SECURITY_CLASSIFICATION ( #3, ( #127 ) ) ;
#124 = DIRECTION ( 'NONE',  ( 1.000000000000000000, 0.0000000000000000000, 0.0000000000000000000 ) ) ;
#125 = CARTESIAN_POINT ( 'NONE',  ( 0.0000000000000000000, 0.0000000000000000000, 0.0000000000000000000 ) ) ;
#126 = APPROVAL_ROLE ( '' ) ;
#127 = PRODUCT_DEFINITION_FORMATION_WITH_SPECIFIED_SOURCE ( 'ANY', '', #63, .NOT_KNOWN. ) ;
#128 = MECHANICAL_CONTEXT ( 'NONE', #141, 'mechanical' ) ;
#129 = ADVANCED_FACE ( 'NONE', ( #27 ), #88, .F. ) ;
#130 = APPROVAL ( #65, 'UNSPECIFIED' ) ;
#131 = PRODUCT_DEFINITION_SHAPE ( 'NONE', 'NONE',  #34 ) ;
#132 = APPROVAL ( #90, 'UNSPECIFIED' ) ;
#133 = VECTOR ( 'NONE', #154, 1000.000000000000000 ) ;
#134 = LOCAL_TIME ( 14, 27, 9.000000000000000000, #14 ) ;
#135 = AXIS2_PLACEMENT_3D ( 'NONE', #43, #59, #107 ) ;
#136 = CARTESIAN_POINT ( 'NONE',  ( 0.0000000000000000000, 0.0000000000000000000, 0.0000000000000000000 ) ) ;
#137 = ORIENTED_EDGE ( 'NONE', *, *, #68, .F. ) ;
#138 = DIRECTION ( 'NONE',  ( 0.0000000000000000000, 0.0000000000000000000, 1.000000000000000000 ) ) ;
#139 = VERTEX_POINT ( 'NONE', #157 ) ;
#140 = DIRECTION ( 'NONE',  ( 0.0000000000000000000, 0.0000000000000000000, 1.000000000000000000 ) ) ;
#141 = APPLICATION_CONTEXT ( 'configuration controlled 3d designs of mechanical parts and assemblies' ) ;
#142 = CALENDAR_DATE ( 2020, 21, 10 ) ;
#143 = PERSON_AND_ORGANIZATION_ROLE ( 'creator' ) ;
#144 = AXIS2_PLACEMENT_3D ( 'NONE', #33, #78, #62 ) ;
#145 = ORIENTED_EDGE ( 'NONE', *, *, #103, .T. ) ;
#146 = AXIS2_PLACEMENT_3D ( 'NONE', #25, #28, #44 ) ;
#147 = PERSON_AND_ORGANIZATION ( #80, #39 ) ;
#148 = FACE_OUTER_BOUND ( 'NONE', #84, .T. ) ;
#149 = ORIENTED_EDGE ( 'NONE', *, *, #30, .T. ) ;
#150 = COORDINATED_UNIVERSAL_TIME_OFFSET ( 5, 0, .BEHIND. ) ;
#151 = ORIENTED_EDGE ( 'NONE', *, *, #102, .F. ) ;
#152 = CARTESIAN_POINT ( 'NONE',  ( 12.69999999999999929, 1.555301434917138433E-15, 2.250000000000000000 ) ) ;
#153 = CC_DESIGN_PERSON_AND_ORGANIZATION_ASSIGNMENT ( #15, #52, ( #63 ) ) ;
#154 = DIRECTION ( 'NONE',  ( -0.0000000000000000000, -0.0000000000000000000, -1.000000000000000000 ) ) ;
#155 = PRODUCT_RELATED_PRODUCT_CATEGORY ( 'detail', '', ( #63 ) ) ;
#156 = CIRCLE ( 'NONE', #169, 12.69999999999999929 ) ;
#157 = CARTESIAN_POINT ( 'NONE',  ( 12.69999999999999929, 1.555301434917138433E-15, 0.0000000000000000000 ) ) ;
#158 = AXIS2_PLACEMENT_3D ( 'NONE', #136, #92, #171 ) ;
#159 =( NAMED_UNIT ( * ) SI_UNIT ( $, .STERADIAN. ) SOLID_ANGLE_UNIT ( ) );
#160 = DIRECTION ( 'NONE',  ( 1.000000000000000000, 0.0000000000000000000, 0.0000000000000000000 ) ) ;
#161 = ORIENTED_EDGE ( 'NONE', *, *, #76, .F. ) ;
#162 = CARTESIAN_POINT ( 'NONE',  ( -12.69999999999999929, 0.0000000000000000000, 2.250000000000000000 ) ) ;
#163 = VERTEX_POINT ( 'NONE', #32 ) ;
#164 = COORDINATED_UNIVERSAL_TIME_OFFSET ( 5, 0, .BEHIND. ) ;
#165 = LOCAL_TIME ( 14, 27, 9.000000000000000000, #150 ) ;
#166 = DESIGN_CONTEXT ( 'detailed design', #81, 'design' ) ;
#167 = PERSON_AND_ORGANIZATION ( #80, #39 ) ;
#168 = CC_DESIGN_PERSON_AND_ORGANIZATION_ASSIGNMENT ( #101, #13, ( #34 ) ) ;
#169 = AXIS2_PLACEMENT_3D ( 'NONE', #53, #35, #160 ) ;
#170 = DATE_AND_TIME ( #36, #134 ) ;
#171 = DIRECTION ( 'NONE',  ( 1.000000000000000000, 0.0000000000000000000, 0.0000000000000000000 ) ) ;
#172 =( LENGTH_UNIT ( ) NAMED_UNIT ( * ) SI_UNIT ( .MILLI., .METRE. ) );
#173 = CC_DESIGN_PERSON_AND_ORGANIZATION_ASSIGNMENT ( #37, #143, ( #127 ) ) ;
#174 = APPLICATION_PROTOCOL_DEFINITION ( 'international standard', 'config_control_design', 1994, #81 ) ;
#175 = APPROVAL_ROLE ( '' ) ;
ENDSEC;
END-ISO-10303-21;
