ISO-10303-21;
HEADER;
FILE_DESCRIPTION (( 'STEP AP214' ),
    '1' );
FILE_NAME ('4447-E0W.STEP',
    '2009-12-21T17:01:45',
    ( ' ' ),
    ( ' ' ),
    'SwSTEP 2.0',
    'SolidWorks 2009',
    '' );
FILE_SCHEMA (( 'AUTOMOTIVE_DESIGN' ));
ENDSEC;

DATA;
#1 = EDGE_LOOP ( 'NONE', ( #5, #20, #22, #23, #3 ) ) ;
#2 = EDGE_CURVE ( 'NONE', #25, #13, #68, .T. ) ;
#3 = ORIENTED_EDGE ( 'NONE', *, *, #16, .F. ) ;
#4 = EDGE_LOOP ( 'NONE', ( #51, #11, #9, #10 ) ) ;
#5 = ORIENTED_EDGE ( 'NONE', *, *, #42, .F. ) ;
#6 = ADVANCED_FACE ( 'NONE', ( #71 ), #158, .T. ) ;
#7 = ADVANCED_FACE ( 'NONE', ( #128 ), #210, .T. ) ;
#8 = EDGE_CURVE ( 'NONE', #12, #45, #209, .T. ) ;
#9 = ORIENTED_EDGE ( 'NONE', *, *, #14, .T. ) ;
#10 = ORIENTED_EDGE ( 'NONE', *, *, #2, .F. ) ;
#11 = ORIENTED_EDGE ( 'NONE', *, *, #16, .T. ) ;
#12 = VERTEX_POINT ( 'NONE', #153 ) ;
#13 = VERTEX_POINT ( 'NONE', #152 ) ;
#14 = EDGE_CURVE ( 'NONE', #12, #13, #151, .T. ) ;
#15 = ORIENTED_EDGE ( 'NONE', *, *, #46, .T. ) ;
#16 = EDGE_CURVE ( 'NONE', #31, #12, #145, .T. ) ;
#17 = ORIENTED_EDGE ( 'NONE', *, *, #14, .F. ) ;
#18 = EDGE_LOOP ( 'NONE', ( #17, #19, #15, #21 ) ) ;
#19 = ORIENTED_EDGE ( 'NONE', *, *, #8, .T. ) ;
#20 = ORIENTED_EDGE ( 'NONE', *, *, #28, .T. ) ;
#21 = ORIENTED_EDGE ( 'NONE', *, *, #2, .T. ) ;
#22 = ORIENTED_EDGE ( 'NONE', *, *, #48, .T. ) ;
#23 = ORIENTED_EDGE ( 'NONE', *, *, #8, .F. ) ;
#24 = ADVANCED_FACE ( 'NONE', ( #140 ), #225, .F. ) ;
#25 = VERTEX_POINT ( 'NONE', #224 ) ;
#26 = ORIENTED_EDGE ( 'NONE', *, *, #37, .F. ) ;
#27 = EDGE_LOOP ( 'NONE', ( #26, #30 ) ) ;
#28 = EDGE_CURVE ( 'NONE', #41, #40, #90, .T. ) ;
#29 = CLOSED_SHELL ( 'NONE', ( #32, #50, #6, #7, #24 ) ) ;
#30 = ORIENTED_EDGE ( 'NONE', *, *, #28, .F. ) ;
#31 = VERTEX_POINT ( 'NONE', #85 ) ;
#32 = ADVANCED_FACE ( 'NONE', ( #84 ), #203, .T. ) ;
#33 = ORIENTED_EDGE ( 'NONE', *, *, #44, .F. ) ;
#34 = MANIFOLD_SOLID_BREP ( 'NONE', #29 ) ;
#35 = ORIENTED_EDGE ( 'NONE', *, *, #42, .T. ) ;
#36 = ORIENTED_EDGE ( 'NONE', *, *, #37, .T. ) ;
#37 = EDGE_CURVE ( 'NONE', #40, #41, #183, .T. ) ;
#38 =( GEOMETRIC_REPRESENTATION_CONTEXT ( 3 ) GLOBAL_UNCERTAINTY_ASSIGNED_CONTEXT ( ( #39 ) ) GLOBAL_UNIT_ASSIGNED_CONTEXT ( ( #54, #53, #52 ) ) REPRESENTATION_CONTEXT ( 'NONE', 'WORKASPACE' ) );
#39 = UNCERTAINTY_MEASURE_WITH_UNIT (LENGTH_MEASURE( 1.000000000000000100E-005 ), #54, 'distance_accuracy_value', 'NONE');
#40 = VERTEX_POINT ( 'NONE', #98 ) ;
#41 = VERTEX_POINT ( 'NONE', #97 ) ;
#42 = EDGE_CURVE ( 'NONE', #41, #31, #96, .T. ) ;
#43 = EDGE_LOOP ( 'NONE', ( #36, #35, #33, #47, #49 ) ) ;
#44 = EDGE_CURVE ( 'NONE', #25, #31, #92, .T. ) ;
#45 = VERTEX_POINT ( 'NONE', #242 ) ;
#46 = EDGE_CURVE ( 'NONE', #45, #25, #241, .T. ) ;
#47 = ORIENTED_EDGE ( 'NONE', *, *, #46, .F. ) ;
#48 = EDGE_CURVE ( 'NONE', #40, #45, #235, .T. ) ;
#49 = ORIENTED_EDGE ( 'NONE', *, *, #48, .F. ) ;
#50 = ADVANCED_FACE ( 'NONE', ( #231 ), #179, .T. ) ;
#51 = ORIENTED_EDGE ( 'NONE', *, *, #44, .T. ) ;
#52 =( NAMED_UNIT ( * ) SI_UNIT ( $, .STERADIAN. ) SOLID_ANGLE_UNIT ( ) );
#53 =( NAMED_UNIT ( * ) PLANE_ANGLE_UNIT ( ) SI_UNIT ( $, .RADIAN. ) );
#54 =( LENGTH_UNIT ( ) NAMED_UNIT ( * ) SI_UNIT ( .MILLI., .METRE. ) );
#55 = MECHANICAL_DESIGN_GEOMETRIC_PRESENTATION_REPRESENTATION (  '', ( #161 ), #38 ) ;
#56 = STYLED_ITEM ( 'NONE', ( #57 ), #6 ) ;
#57 = PRESENTATION_STYLE_ASSIGNMENT (( #58 ) ) ;
#58 = SURFACE_STYLE_USAGE ( .BOTH. , #59 ) ;
#59 = SURFACE_SIDE_STYLE ('',( #60 ) ) ;
#60 = SURFACE_STYLE_FILL_AREA ( #113 ) ;
#61 =( GEOMETRIC_REPRESENTATION_CONTEXT ( 3 ) GLOBAL_UNCERTAINTY_ASSIGNED_CONTEXT ( ( #62 ) ) GLOBAL_UNIT_ASSIGNED_CONTEXT ( ( #73, #64, #63 ) ) REPRESENTATION_CONTEXT ( 'NONE', 'WORKASPACE' ) );
#62 = UNCERTAINTY_MEASURE_WITH_UNIT (LENGTH_MEASURE( 1.000000000000000100E-005 ), #73, 'distance_accuracy_value', 'NONE');
#63 =( NAMED_UNIT ( * ) SI_UNIT ( $, .STERADIAN. ) SOLID_ANGLE_UNIT ( ) );
#64 =( NAMED_UNIT ( * ) PLANE_ANGLE_UNIT ( ) SI_UNIT ( $, .RADIAN. ) );
#65 = UNCERTAINTY_MEASURE_WITH_UNIT (LENGTH_MEASURE( 1.000000000000000100E-005 ), #217, 'distance_accuracy_value', 'NONE');
#66 =( NAMED_UNIT ( * ) SI_UNIT ( $, .STERADIAN. ) SOLID_ANGLE_UNIT ( ) );
#67 =( NAMED_UNIT ( * ) PLANE_ANGLE_UNIT ( ) SI_UNIT ( $, .RADIAN. ) );
#68 = CIRCLE ( 'NONE', #72, 20.59999999999999800 ) ;
#69 = DIRECTION ( 'NONE',  ( 1.000000000000000000, 0.0000000000000000000, 0.0000000000000000000 ) ) ;
#70 = CARTESIAN_POINT ( 'NONE',  ( 0.0000000000000000000, 0.0000000000000000000, -16.11500000000000200 ) ) ;
#71 = FACE_OUTER_BOUND ( 'NONE', #18, .T. ) ;
#72 = AXIS2_PLACEMENT_3D ( 'NONE', #70, #69, #115 ) ;
#73 =( LENGTH_UNIT ( ) NAMED_UNIT ( * ) SI_UNIT ( .MILLI., .METRE. ) );
#74 = MECHANICAL_DESIGN_GEOMETRIC_PRESENTATION_REPRESENTATION (  '', ( #76 ), #61 ) ;
#75 = PRESENTATION_LAYER_ASSIGNMENT (  '', '', ( #76 ) ) ;
#76 = STYLED_ITEM ( 'NONE', ( #77 ), #32 ) ;
#77 = PRESENTATION_STYLE_ASSIGNMENT (( #78 ) ) ;
#78 = SURFACE_STYLE_USAGE ( .BOTH. , #79 ) ;
#79 = SURFACE_SIDE_STYLE ('',( #80 ) ) ;
#80 = SURFACE_STYLE_FILL_AREA ( #81 ) ;
#81 = FILL_AREA_STYLE ('',( #82 ) ) ;
#82 = FILL_AREA_STYLE_COLOUR ( '', #83 ) ;
#83 = COLOUR_RGB ( '',0.9568627450980391500, 0.9490196078431372100, 0.9607843137254902200 ) ;
#84 = FACE_OUTER_BOUND ( 'NONE', #43, .T. ) ;
#85 = CARTESIAN_POINT ( 'NONE',  ( -15.00000000000000400, 1.836909530733566300E-015, -1.995509924221768000 ) ) ;
#86 = DIRECTION ( 'NONE',  ( 1.000000000000000000, 0.0000000000000000000, 0.0000000000000000000 ) ) ;
#87 = DIRECTION ( 'NONE',  ( -0.0000000000000000000, -0.0000000000000000000, 1.000000000000000000 ) ) ;
#88 = CARTESIAN_POINT ( 'NONE',  ( 0.0000000000000000000, 0.0000000000000000000, -4.484999999999999400 ) ) ;
#89 = AXIS2_PLACEMENT_3D ( 'NONE', #88, #87, #86 ) ;
#90 = CIRCLE ( 'NONE', #89, 15.00000000000000000 ) ;
#91 = AXIS2_PLACEMENT_3D ( 'NONE', #245, #244, #243 ) ;
#92 = CIRCLE ( 'NONE', #91, 15.00000000000000200 ) ;
#93 = DIRECTION ( 'NONE',  ( -0.0000000000000000000, -0.0000000000000000000, 1.000000000000000000 ) ) ;
#94 = VECTOR ( 'NONE', #93, 1000.000000000000000 ) ;
#95 = CARTESIAN_POINT ( 'NONE',  ( -15.00000000000000000, 1.836909530733565900E-015, 4.308132045400366600 ) ) ;
#96 = LINE ( 'NONE', #95, #94 ) ;
#97 = CARTESIAN_POINT ( 'NONE',  ( -15.00000000000000000, 1.836909530733565900E-015, -4.484999999999999400 ) ) ;
#98 = CARTESIAN_POINT ( 'NONE',  ( 15.00000000000000000, 0.0000000000000000000, -4.484999999999999400 ) ) ;
#99 = DIRECTION ( 'NONE',  ( 1.000000000000000000, 0.0000000000000000000, 0.0000000000000000000 ) ) ;
#100 =( GEOMETRIC_REPRESENTATION_CONTEXT ( 3 ) GLOBAL_UNCERTAINTY_ASSIGNED_CONTEXT ( ( #101 ) ) GLOBAL_UNIT_ASSIGNED_CONTEXT ( ( #104, #103, #102 ) ) REPRESENTATION_CONTEXT ( 'NONE', 'WORKASPACE' ) );
#101 = UNCERTAINTY_MEASURE_WITH_UNIT (LENGTH_MEASURE( 1.000000000000000100E-005 ), #104, 'distance_accuracy_value', 'NONE');
#102 =( NAMED_UNIT ( * ) SI_UNIT ( $, .STERADIAN. ) SOLID_ANGLE_UNIT ( ) );
#103 =( NAMED_UNIT ( * ) PLANE_ANGLE_UNIT ( ) SI_UNIT ( $, .RADIAN. ) );
#104 =( LENGTH_UNIT ( ) NAMED_UNIT ( * ) SI_UNIT ( .MILLI., .METRE. ) );
#105 = MECHANICAL_DESIGN_GEOMETRIC_PRESENTATION_REPRESENTATION (  '', ( #107 ), #100 ) ;
#106 = PRESENTATION_LAYER_ASSIGNMENT (  '', '', ( #107 ) ) ;
#107 = STYLED_ITEM ( 'NONE', ( #108 ), #50 ) ;
#108 = PRESENTATION_STYLE_ASSIGNMENT (( #109 ) ) ;
#109 = SURFACE_STYLE_USAGE ( .BOTH. , #110 ) ;
#110 = SURFACE_SIDE_STYLE ('',( #111 ) ) ;
#111 = SURFACE_STYLE_FILL_AREA ( #112 ) ;
#112 = FILL_AREA_STYLE ('',( #236 ) ) ;
#113 = FILL_AREA_STYLE ('',( #116 ) ) ;
#114 = COLOUR_RGB ( '',0.9568627450980391500, 0.9490196078431372100, 0.9607843137254902200 ) ;
#115 = DIRECTION ( 'NONE',  ( 0.0000000000000000000, 0.0000000000000000000, -1.000000000000000000 ) ) ;
#116 = FILL_AREA_STYLE_COLOUR ( '', #114 ) ;
#117 = PRESENTATION_LAYER_ASSIGNMENT (  '', '', ( #118 ) ) ;
#118 = STYLED_ITEM ( 'NONE', ( #119 ), #7 ) ;
#119 = PRESENTATION_STYLE_ASSIGNMENT (( #120 ) ) ;
#120 = SURFACE_STYLE_USAGE ( .BOTH. , #121 ) ;
#121 = SURFACE_SIDE_STYLE ('',( #122 ) ) ;
#122 = SURFACE_STYLE_FILL_AREA ( #123 ) ;
#123 = FILL_AREA_STYLE ('',( #129 ) ) ;
#124 = COLOUR_RGB ( '',0.9568627450980391500, 0.9490196078431372100, 0.9607843137254902200 ) ;
#125 = DIRECTION ( 'NONE',  ( 0.0000000000000000000, 1.000000000000000000, 0.0000000000000000000 ) ) ;
#126 = DIRECTION ( 'NONE',  ( -1.000000000000000000, 0.0000000000000000000, 0.0000000000000000000 ) ) ;
#127 = AXIS2_PLACEMENT_3D ( 'NONE', #157, #126, #125 ) ;
#128 = FACE_OUTER_BOUND ( 'NONE', #1, .T. ) ;
#129 = FILL_AREA_STYLE_COLOUR ( '', #124 ) ;
#130 =( LENGTH_UNIT ( ) NAMED_UNIT ( * ) SI_UNIT ( .MILLI., .METRE. ) );
#131 = MECHANICAL_DESIGN_GEOMETRIC_PRESENTATION_REPRESENTATION (  '', ( #133 ), #226 ) ;
#132 = PRESENTATION_LAYER_ASSIGNMENT (  '', '', ( #133 ) ) ;
#133 = STYLED_ITEM ( 'NONE', ( #134 ), #24 ) ;
#134 = PRESENTATION_STYLE_ASSIGNMENT (( #135 ) ) ;
#135 = SURFACE_STYLE_USAGE ( .BOTH. , #136 ) ;
#136 = SURFACE_SIDE_STYLE ('',( #137 ) ) ;
#137 = SURFACE_STYLE_FILL_AREA ( #138 ) ;
#138 = FILL_AREA_STYLE ('',( #146 ) ) ;
#139 = COLOUR_RGB ( '',0.9568627450980391500, 0.9490196078431372100, 0.9607843137254902200 ) ;
#140 = FACE_OUTER_BOUND ( 'NONE', #27, .T. ) ;
#141 = DIRECTION ( 'NONE',  ( 1.000000000000000000, 0.0000000000000000000, 0.0000000000000000000 ) ) ;
#142 = DIRECTION ( 'NONE',  ( -0.0000000000000000000, -0.0000000000000000000, 1.000000000000000000 ) ) ;
#143 = CARTESIAN_POINT ( 'NONE',  ( 0.0000000000000000000, 0.0000000000000000000, -1.995509924221768000 ) ) ;
#144 = AXIS2_PLACEMENT_3D ( 'NONE', #143, #142, #141 ) ;
#145 = CIRCLE ( 'NONE', #144, 15.00000000000000200 ) ;
#146 = FILL_AREA_STYLE_COLOUR ( '', #139 ) ;
#147 = DIRECTION ( 'NONE',  ( -1.224606353822377300E-016, -1.000000000000000000, 0.0000000000000000000 ) ) ;
#148 = DIRECTION ( 'NONE',  ( -1.000000000000000000, 1.224606353822377300E-016, 0.0000000000000000000 ) ) ;
#149 = CARTESIAN_POINT ( 'NONE',  ( 0.0000000000000000000, 0.0000000000000000000, -16.11500000000000200 ) ) ;
#150 = AXIS2_PLACEMENT_3D ( 'NONE', #149, #148, #147 ) ;
#151 = CIRCLE ( 'NONE', #150, 20.60000000000000100 ) ;
#152 = CARTESIAN_POINT ( 'NONE',  ( 0.0000000000000000000, 1.261344544437048600E-015, 4.484999999999999400 ) ) ;
#153 = CARTESIAN_POINT ( 'NONE',  ( -1.836909530733566300E-015, -15.00000000000000200, -1.995509924221768000 ) ) ;
#154 = DIRECTION ( 'NONE',  ( 1.000000000000000000, 0.0000000000000000000, 0.0000000000000000000 ) ) ;
#155 = DIRECTION ( 'NONE',  ( -0.0000000000000000000, -0.0000000000000000000, 1.000000000000000000 ) ) ;
#156 = AXIS2_PLACEMENT_3D ( 'NONE', #204, #155, #154 ) ;
#157 = CARTESIAN_POINT ( 'NONE',  ( 0.0000000000000000000, 0.0000000000000000000, -16.11500000000000200 ) ) ;
#158 = SPHERICAL_SURFACE ( 'NONE', #127, 20.60000000000000100 ) ;
#159 =( GEOMETRIC_REPRESENTATION_CONTEXT ( 3 ) GLOBAL_UNCERTAINTY_ASSIGNED_CONTEXT ( ( #65 ) ) GLOBAL_UNIT_ASSIGNED_CONTEXT ( ( #217, #67, #66 ) ) REPRESENTATION_CONTEXT ( 'NONE', 'WORKASPACE' ) );
#160 = PRESENTATION_LAYER_ASSIGNMENT (  '', '', ( #161 ) ) ;
#161 = STYLED_ITEM ( 'NONE', ( #162 ), #169 ) ;
#162 = PRESENTATION_STYLE_ASSIGNMENT (( #163 ) ) ;
#163 = SURFACE_STYLE_USAGE ( .BOTH. , #164 ) ;
#164 = SURFACE_SIDE_STYLE ('',( #165 ) ) ;
#165 = SURFACE_STYLE_FILL_AREA ( #166 ) ;
#166 = FILL_AREA_STYLE ('',( #167 ) ) ;
#167 = FILL_AREA_STYLE_COLOUR ( '', #168 ) ;
#168 = COLOUR_RGB ( '',0.7960784313725489700, 0.8235294117647058400, 0.9372549019607843100 ) ;
#169 = ADVANCED_BREP_SHAPE_REPRESENTATION ( '4447-E0W', ( #34, #258 ), #170 ) ;
#170 =( GEOMETRIC_REPRESENTATION_CONTEXT ( 3 ) GLOBAL_UNCERTAINTY_ASSIGNED_CONTEXT ( ( #171 ) ) GLOBAL_UNIT_ASSIGNED_CONTEXT ( ( #174, #173, #172 ) ) REPRESENTATION_CONTEXT ( 'NONE', 'WORKASPACE' ) );
#171 = UNCERTAINTY_MEASURE_WITH_UNIT (LENGTH_MEASURE( 1.000000000000000100E-005 ), #174, 'distance_accuracy_value', 'NONE');
#172 =( NAMED_UNIT ( * ) SI_UNIT ( $, .STERADIAN. ) SOLID_ANGLE_UNIT ( ) );
#173 =( NAMED_UNIT ( * ) PLANE_ANGLE_UNIT ( ) SI_UNIT ( $, .RADIAN. ) );
#174 =( LENGTH_UNIT ( ) NAMED_UNIT ( * ) SI_UNIT ( .MILLI., .METRE. ) );
#175 = DIRECTION ( 'NONE',  ( 0.0000000000000000000, 1.000000000000000000, 0.0000000000000000000 ) ) ;
#176 = DIRECTION ( 'NONE',  ( -1.000000000000000000, 0.0000000000000000000, 0.0000000000000000000 ) ) ;
#177 = AXIS2_PLACEMENT_3D ( 'NONE', #178, #176, #175 ) ;
#178 = CARTESIAN_POINT ( 'NONE',  ( 0.0000000000000000000, 0.0000000000000000000, -16.11500000000000200 ) ) ;
#179 = SPHERICAL_SURFACE ( 'NONE', #177, 20.60000000000000100 ) ;
#180 = DIRECTION ( 'NONE',  ( -0.0000000000000000000, -0.0000000000000000000, 1.000000000000000000 ) ) ;
#181 = CARTESIAN_POINT ( 'NONE',  ( 0.0000000000000000000, 0.0000000000000000000, -4.484999999999999400 ) ) ;
#182 = AXIS2_PLACEMENT_3D ( 'NONE', #181, #180, #99 ) ;
#183 = CIRCLE ( 'NONE', #182, 15.00000000000000000 ) ;
#184 =( GEOMETRIC_REPRESENTATION_CONTEXT ( 3 ) GLOBAL_UNCERTAINTY_ASSIGNED_CONTEXT ( ( #185 ) ) GLOBAL_UNIT_ASSIGNED_CONTEXT ( ( #188, #187, #186 ) ) REPRESENTATION_CONTEXT ( 'NONE', 'WORKASPACE' ) );
#185 = UNCERTAINTY_MEASURE_WITH_UNIT (LENGTH_MEASURE( 1.000000000000000100E-005 ), #188, 'distance_accuracy_value', 'NONE');
#186 =( NAMED_UNIT ( * ) SI_UNIT ( $, .STERADIAN. ) SOLID_ANGLE_UNIT ( ) );
#187 =( NAMED_UNIT ( * ) PLANE_ANGLE_UNIT ( ) SI_UNIT ( $, .RADIAN. ) );
#188 =( LENGTH_UNIT ( ) NAMED_UNIT ( * ) SI_UNIT ( .MILLI., .METRE. ) );
#189 = MECHANICAL_DESIGN_GEOMETRIC_PRESENTATION_REPRESENTATION (  '', ( #191 ), #184 ) ;
#190 = PRESENTATION_LAYER_ASSIGNMENT (  '', '', ( #191 ) ) ;
#191 = STYLED_ITEM ( 'NONE', ( #192 ), #34 ) ;
#192 = PRESENTATION_STYLE_ASSIGNMENT (( #193 ) ) ;
#193 = SURFACE_STYLE_USAGE ( .BOTH. , #194 ) ;
#194 = SURFACE_SIDE_STYLE ('',( #195 ) ) ;
#195 = SURFACE_STYLE_FILL_AREA ( #196 ) ;
#196 = FILL_AREA_STYLE ('',( #202 ) ) ;
#197 = DIRECTION ( 'NONE',  ( 1.000000000000000000, 0.0000000000000000000, 0.0000000000000000000 ) ) ;
#198 = DIRECTION ( 'NONE',  ( -0.0000000000000000000, -0.0000000000000000000, 1.000000000000000000 ) ) ;
#199 = CARTESIAN_POINT ( 'NONE',  ( 0.0000000000000000000, 0.0000000000000000000, 4.308132045400366600 ) ) ;
#200 = AXIS2_PLACEMENT_3D ( 'NONE', #199, #198, #197 ) ;
#201 = COLOUR_RGB ( '',0.7960784313725489700, 0.8235294117647058400, 0.9372549019607843100 ) ;
#202 = FILL_AREA_STYLE_COLOUR ( '', #201 ) ;
#203 = CYLINDRICAL_SURFACE ( 'NONE', #200, 15.00000000000000000 ) ;
#204 = CARTESIAN_POINT ( 'NONE',  ( 0.0000000000000000000, 0.0000000000000000000, -1.995509924221768000 ) ) ;
#205 = DIRECTION ( 'NONE',  ( 1.000000000000000000, 0.0000000000000000000, 0.0000000000000000000 ) ) ;
#206 = DIRECTION ( 'NONE',  ( -0.0000000000000000000, -0.0000000000000000000, 1.000000000000000000 ) ) ;
#207 = CARTESIAN_POINT ( 'NONE',  ( 0.0000000000000000000, 0.0000000000000000000, 4.308132045400366600 ) ) ;
#208 = AXIS2_PLACEMENT_3D ( 'NONE', #207, #206, #205 ) ;
#209 = CIRCLE ( 'NONE', #156, 15.00000000000000200 ) ;
#210 = CYLINDRICAL_SURFACE ( 'NONE', #208, 15.00000000000000000 ) ;
#211 =( GEOMETRIC_REPRESENTATION_CONTEXT ( 3 ) GLOBAL_UNCERTAINTY_ASSIGNED_CONTEXT ( ( #212 ) ) GLOBAL_UNIT_ASSIGNED_CONTEXT ( ( #215, #214, #213 ) ) REPRESENTATION_CONTEXT ( 'NONE', 'WORKASPACE' ) );
#212 = UNCERTAINTY_MEASURE_WITH_UNIT (LENGTH_MEASURE( 1.000000000000000100E-005 ), #215, 'distance_accuracy_value', 'NONE');
#213 =( NAMED_UNIT ( * ) SI_UNIT ( $, .STERADIAN. ) SOLID_ANGLE_UNIT ( ) );
#214 =( NAMED_UNIT ( * ) PLANE_ANGLE_UNIT ( ) SI_UNIT ( $, .RADIAN. ) );
#215 =( LENGTH_UNIT ( ) NAMED_UNIT ( * ) SI_UNIT ( .MILLI., .METRE. ) );
#216 = MECHANICAL_DESIGN_GEOMETRIC_PRESENTATION_REPRESENTATION (  '', ( #118 ), #211 ) ;
#217 =( LENGTH_UNIT ( ) NAMED_UNIT ( * ) SI_UNIT ( .MILLI., .METRE. ) );
#218 = MECHANICAL_DESIGN_GEOMETRIC_PRESENTATION_REPRESENTATION (  '', ( #56 ), #159 ) ;
#219 = PRESENTATION_LAYER_ASSIGNMENT (  '', '', ( #56 ) ) ;
#220 = DIRECTION ( 'NONE',  ( 1.000000000000000000, 0.0000000000000000000, 0.0000000000000000000 ) ) ;
#221 = DIRECTION ( 'NONE',  ( 0.0000000000000000000, -0.0000000000000000000, 1.000000000000000000 ) ) ;
#222 = CARTESIAN_POINT ( 'NONE',  ( 0.0000000000000000000, 1.647762268252763800E-015, -4.485000000000000300 ) ) ;
#223 = AXIS2_PLACEMENT_3D ( 'NONE', #222, #221, #220 ) ;
#224 = CARTESIAN_POINT ( 'NONE',  ( 0.0000000000000000000, 15.00000000000000200, -1.995509924221768000 ) ) ;
#225 = PLANE ( 'NONE',  #223 ) ;
#226 =( GEOMETRIC_REPRESENTATION_CONTEXT ( 3 ) GLOBAL_UNCERTAINTY_ASSIGNED_CONTEXT ( ( #227 ) ) GLOBAL_UNIT_ASSIGNED_CONTEXT ( ( #130, #229, #228 ) ) REPRESENTATION_CONTEXT ( 'NONE', 'WORKASPACE' ) );
#227 = UNCERTAINTY_MEASURE_WITH_UNIT (LENGTH_MEASURE( 1.000000000000000100E-005 ), #130, 'distance_accuracy_value', 'NONE');
#228 =( NAMED_UNIT ( * ) SI_UNIT ( $, .STERADIAN. ) SOLID_ANGLE_UNIT ( ) );
#229 =( NAMED_UNIT ( * ) PLANE_ANGLE_UNIT ( ) SI_UNIT ( $, .RADIAN. ) );
#230 = COLOUR_RGB ( '',0.9568627450980391500, 0.9490196078431372100, 0.9607843137254902200 ) ;
#231 = FACE_OUTER_BOUND ( 'NONE', #4, .T. ) ;
#232 = DIRECTION ( 'NONE',  ( -0.0000000000000000000, -0.0000000000000000000, 1.000000000000000000 ) ) ;
#233 = VECTOR ( 'NONE', #232, 1000.000000000000000 ) ;
#234 = CARTESIAN_POINT ( 'NONE',  ( 15.00000000000000000, 0.0000000000000000000, 4.308132045400366600 ) ) ;
#235 = LINE ( 'NONE', #234, #233 ) ;
#236 = FILL_AREA_STYLE_COLOUR ( '', #230 ) ;
#237 = DIRECTION ( 'NONE',  ( 1.000000000000000000, 0.0000000000000000000, 0.0000000000000000000 ) ) ;
#238 = DIRECTION ( 'NONE',  ( -0.0000000000000000000, -0.0000000000000000000, 1.000000000000000000 ) ) ;
#239 = CARTESIAN_POINT ( 'NONE',  ( 0.0000000000000000000, 0.0000000000000000000, -1.995509924221768000 ) ) ;
#240 = AXIS2_PLACEMENT_3D ( 'NONE', #239, #238, #237 ) ;
#241 = CIRCLE ( 'NONE', #240, 15.00000000000000200 ) ;
#242 = CARTESIAN_POINT ( 'NONE',  ( 15.00000000000000400, 0.0000000000000000000, -1.995509924221768000 ) ) ;
#243 = DIRECTION ( 'NONE',  ( 1.000000000000000000, 0.0000000000000000000, 0.0000000000000000000 ) ) ;
#244 = DIRECTION ( 'NONE',  ( -0.0000000000000000000, -0.0000000000000000000, 1.000000000000000000 ) ) ;
#245 = CARTESIAN_POINT ( 'NONE',  ( 0.0000000000000000000, 0.0000000000000000000, -1.995509924221768000 ) ) ;
#246 = CARTESIAN_POINT ( 'NONE',  ( 0.0000000000000000000, 0.0000000000000000000, 0.0000000000000000000 ) ) ;
#247 = PRODUCT_RELATED_PRODUCT_CATEGORY ( 'part', '', ( #255 ) ) ;
#248 = PRODUCT_DEFINITION_FORMATION_WITH_SPECIFIED_SOURCE ( 'ANY', '', #255, .NOT_KNOWN. ) ;
#249 = SHAPE_DEFINITION_REPRESENTATION ( #250, #169 ) ;
#250 = PRODUCT_DEFINITION_SHAPE ( 'NONE', 'NONE',  #251 ) ;
#251 = PRODUCT_DEFINITION ( 'UNKNOWN', '', #248, #252 ) ;
#252 = PRODUCT_DEFINITION_CONTEXT ( 'detailed design', #254, 'design' ) ;
#253 = APPLICATION_PROTOCOL_DEFINITION ( 'draft international standard', 'automotive_design', 1998, #254 ) ;
#254 = APPLICATION_CONTEXT ( 'automotive_design' ) ;
#255 = PRODUCT ( '4447-E0W', '4447-E0W', '', ( #256 ) ) ;
#256 = PRODUCT_CONTEXT ( 'NONE', #260, 'mechanical' ) ;
#257 = APPLICATION_PROTOCOL_DEFINITION ( 'draft international standard', 'automotive_design', 1998, #260 ) ;
#258 = AXIS2_PLACEMENT_3D ( 'NONE', #246, #261, #259 ) ;
#259 = DIRECTION ( 'NONE',  ( 1.000000000000000000, 0.0000000000000000000, 0.0000000000000000000 ) ) ;
#260 = APPLICATION_CONTEXT ( 'automotive_design' ) ;
#261 = DIRECTION ( 'NONE',  ( 0.0000000000000000000, 0.0000000000000000000, 1.000000000000000000 ) ) ;
ENDSEC;
END-ISO-10303-21;
