ISO-10303-21;
HEADER;
FILE_DESCRIPTION (( 'STEP AP203' ),
    '1' );
FILE_NAME ('Web Model Ø5-75mm Indoor Hydrophobic Windows_36073.step',
    '2017-09-07T19:07:18',
    ( '' ),
    ( '' ),
    'SwSTEP 2.0',
    'SolidWorks 2016',
    '' );
FILE_SCHEMA (( 'CONFIG_CONTROL_DESIGN' ));
ENDSEC;

DATA;
#1 = VERTEX_POINT ( 'NONE', #124 ) ;
#2 = APPROVAL_STATUS ( 'not_yet_approved' ) ;
#3 = DATE_TIME_ROLE ( 'creation_date' ) ;
#4 = COORDINATED_UNIVERSAL_TIME_OFFSET ( 5, 0, .BEHIND. ) ;
#5 = CC_DESIGN_DATE_AND_TIME_ASSIGNMENT ( #7, #123, ( #74 ) ) ;
#6 = CARTESIAN_POINT ( 'NONE',  ( -25.00000000000000000, 0.0000000000000000000, 0.5500000000000000400 ) ) ;
#7 = DATE_AND_TIME ( #61, #127 ) ;
#8 = EDGE_CURVE ( 'NONE', #1, #72, #89, .T. ) ;
#9 = DIRECTION ( 'NONE',  ( 0.0000000000000000000, 0.0000000000000000000, 1.000000000000000000 ) ) ;
#10 = SHAPE_DEFINITION_REPRESENTATION ( #53, #143 ) ;
#11 = COORDINATED_UNIVERSAL_TIME_OFFSET ( 5, 0, .BEHIND. ) ;
#12 = COORDINATED_UNIVERSAL_TIME_OFFSET ( 5, 0, .BEHIND. ) ;
#13 = MECHANICAL_CONTEXT ( 'NONE', #108, 'mechanical' ) ;
#14 = SECURITY_CLASSIFICATION_LEVEL ( 'unclassified' ) ;
#15 = FACE_OUTER_BOUND ( 'NONE', #140, .T. ) ;
#16 = AXIS2_PLACEMENT_3D ( 'NONE', #95, #38, #85 ) ;
#17 = APPROVAL_ROLE ( '' ) ;
#18 =( NAMED_UNIT ( * ) SI_UNIT ( $, .STERADIAN. ) SOLID_ANGLE_UNIT ( ) );
#19 = DIRECTION ( 'NONE',  ( -0.0000000000000000000, -0.0000000000000000000, -1.000000000000000000 ) ) ;
#20 = CARTESIAN_POINT ( 'NONE',  ( 0.0000000000000000000, 0.0000000000000000000, -0.5500000000000000400 ) ) ;
#21 = DIRECTION ( 'NONE',  ( 1.000000000000000000, 0.0000000000000000000, -0.0000000000000000000 ) ) ;
#22 = CC_DESIGN_PERSON_AND_ORGANIZATION_ASSIGNMENT ( #66, #32, ( #129 ) ) ;
#23 = VERTEX_POINT ( 'NONE', #144 ) ;
#24 = PERSON_AND_ORGANIZATION ( #149, #54 ) ;
#25 = CYLINDRICAL_SURFACE ( 'NONE', #16, 25.00000000000000000 ) ;
#26 = APPROVAL_PERSON_ORGANIZATION ( #91, #139, #17 ) ;
#27 = ORIENTED_EDGE ( 'NONE', *, *, #37, .F. ) ;
#28 = CC_DESIGN_APPROVAL ( #47, ( #161 ) ) ;
#29 = DATE_AND_TIME ( #158, #135 ) ;
#30 = APPROVAL_ROLE ( '' ) ;
#31 = APPROVAL_STATUS ( 'not_yet_approved' ) ;
#32 = PERSON_AND_ORGANIZATION_ROLE ( 'creator' ) ;
#33 = CARTESIAN_POINT ( 'NONE',  ( 0.0000000000000000000, 0.0000000000000000000, 0.5500000000000000400 ) ) ;
#34 = DIRECTION ( 'NONE',  ( -0.0000000000000000000, -0.0000000000000000000, -1.000000000000000000 ) ) ;
#35 = EDGE_CURVE ( 'NONE', #23, #72, #118, .T. ) ;
#36 = DIRECTION ( 'NONE',  ( 1.000000000000000000, 0.0000000000000000000, 0.0000000000000000000 ) ) ;
#37 = EDGE_CURVE ( 'NONE', #1, #136, #58, .T. ) ;
#38 = DIRECTION ( 'NONE',  ( -0.0000000000000000000, -0.0000000000000000000, -1.000000000000000000 ) ) ;
#39 = AXIS2_PLACEMENT_3D ( 'NONE', #68, #86, #48 ) ;
#40 = ADVANCED_FACE ( 'NONE', ( #105 ), #137, .F. ) ;
#41 = EDGE_CURVE ( 'NONE', #136, #23, #69, .T. ) ;
#42 = CIRCLE ( 'NONE', #157, 25.00000000000000000 ) ;
#43 = ORIENTED_EDGE ( 'NONE', *, *, #41, .F. ) ;
#44 = ORIENTED_EDGE ( 'NONE', *, *, #174, .F. ) ;
#45 = ORIENTED_EDGE ( 'NONE', *, *, #84, .T. ) ;
#46 = PERSON_AND_ORGANIZATION_ROLE ( 'design_owner' ) ;
#47 = APPROVAL ( #145, 'UNSPECIFIED' ) ;
#48 = DIRECTION ( 'NONE',  ( 1.000000000000000000, 0.0000000000000000000, 0.0000000000000000000 ) ) ;
#49 = DESIGN_CONTEXT ( 'detailed design', #166, 'design' ) ;
#50 = CARTESIAN_POINT ( 'NONE',  ( 0.0000000000000000000, 0.0000000000000000000, -0.5500000000000000400 ) ) ;
#51 = CALENDAR_DATE ( 2017, 7, 9 ) ;
#52 = EDGE_LOOP ( 'NONE', ( #27, #104, #98, #43 ) ) ;
#53 = PRODUCT_DEFINITION_SHAPE ( 'NONE', 'NONE',  #161 ) ;
#54 = ORGANIZATION ( 'UNSPECIFIED', 'UNSPECIFIED', '' ) ;
#55 = ADVANCED_FACE ( 'NONE', ( #106 ), #138, .T. ) ;
#56 = CALENDAR_DATE ( 2017, 7, 9 ) ;
#57 = ORIENTED_EDGE ( 'NONE', *, *, #35, .F. ) ;
#58 = CIRCLE ( 'NONE', #119, 25.00000000000000000 ) ;
#59 = CC_DESIGN_PERSON_AND_ORGANIZATION_ASSIGNMENT ( #131, #121, ( #161 ) ) ;
#60 = PRODUCT ( 'Web Model Ø5-75mm Indoor Hydrophobic Windows_36073', 'Web Model Ø5-75mm Indoor Hydrophobic Windows_36073', '', ( #13 ) ) ;
#61 = CALENDAR_DATE ( 2017, 7, 9 ) ;
#62 =( GEOMETRIC_REPRESENTATION_CONTEXT ( 3 ) GLOBAL_UNCERTAINTY_ASSIGNED_CONTEXT ( ( #169 ) ) GLOBAL_UNIT_ASSIGNED_CONTEXT ( ( #164, #132, #18 ) ) REPRESENTATION_CONTEXT ( 'NONE', 'WORKASPACE' ) );
#63 = APPROVAL_ROLE ( '' ) ;
#64 = CARTESIAN_POINT ( 'NONE',  ( 0.0000000000000000000, 0.0000000000000000000, 0.5500000000000000400 ) ) ;
#65 = CARTESIAN_POINT ( 'NONE',  ( -25.00000000000000000, 0.0000000000000000000, 0.5500000000000000400 ) ) ;
#66 = PERSON_AND_ORGANIZATION ( #149, #54 ) ;
#67 = ORIENTED_EDGE ( 'NONE', *, *, #84, .F. ) ;
#68 = CARTESIAN_POINT ( 'NONE',  ( 0.0000000000000000000, 0.0000000000000000000, 0.0000000000000000000 ) ) ;
#69 = LINE ( 'NONE', #65, #130 ) ;
#70 = CC_DESIGN_DATE_AND_TIME_ASSIGNMENT ( #116, #3, ( #161 ) ) ;
#71 = DATE_AND_TIME ( #150, #134 ) ;
#72 = VERTEX_POINT ( 'NONE', #81 ) ;
#73 = ORIENTED_EDGE ( 'NONE', *, *, #35, .T. ) ;
#74 = SECURITY_CLASSIFICATION ( '', '', #14 ) ;
#75 = PERSON_AND_ORGANIZATION ( #149, #54 ) ;
#76 = CC_DESIGN_PERSON_AND_ORGANIZATION_ASSIGNMENT ( #171, #46, ( #60 ) ) ;
#77 = PERSON_AND_ORGANIZATION ( #149, #54 ) ;
#78 = CARTESIAN_POINT ( 'NONE',  ( 0.0000000000000000000, 0.0000000000000000000, -0.5500000000000000400 ) ) ;
#79 = CC_DESIGN_PERSON_AND_ORGANIZATION_ASSIGNMENT ( #75, #80, ( #74 ) ) ;
#80 = PERSON_AND_ORGANIZATION_ROLE ( 'classification_officer' ) ;
#81 = CARTESIAN_POINT ( 'NONE',  ( 25.00000000000000000, 3.061616997868383000E-015, -0.5500000000000000400 ) ) ;
#82 = LOCAL_TIME ( 15, 7, 18.00000000000000000, #12 ) ;
#83 = DIRECTION ( 'NONE',  ( 0.0000000000000000000, 0.0000000000000000000, 1.000000000000000000 ) ) ;
#84 = EDGE_CURVE ( 'NONE', #136, #1, #42, .T. ) ;
#85 = DIRECTION ( 'NONE',  ( -1.000000000000000000, 0.0000000000000000000, 0.0000000000000000000 ) ) ;
#86 = DIRECTION ( 'NONE',  ( 0.0000000000000000000, 0.0000000000000000000, 1.000000000000000000 ) ) ;
#87 = LOCAL_TIME ( 15, 7, 18.00000000000000000, #11 ) ;
#88 = ORIENTED_EDGE ( 'NONE', *, *, #41, .T. ) ;
#89 = LINE ( 'NONE', #168, #165 ) ;
#90 = APPROVAL ( #31, 'UNSPECIFIED' ) ;
#91 = PERSON_AND_ORGANIZATION ( #149, #54 ) ;
#92 = EDGE_LOOP ( 'NONE', ( #57, #44 ) ) ;
#93 = APPLICATION_PROTOCOL_DEFINITION ( 'international standard', 'config_control_design', 1994, #108 ) ;
#94 = APPLICATION_PROTOCOL_DEFINITION ( 'international standard', 'config_control_design', 1994, #166 ) ;
#95 = CARTESIAN_POINT ( 'NONE',  ( 0.0000000000000000000, 0.0000000000000000000, 0.5500000000000000400 ) ) ;
#96 = AXIS2_PLACEMENT_3D ( 'NONE', #50, #111, #133 ) ;
#97 = CARTESIAN_POINT ( 'NONE',  ( 0.0000000000000000000, 0.0000000000000000000, 0.5500000000000000400 ) ) ;
#98 = ORIENTED_EDGE ( 'NONE', *, *, #174, .T. ) ;
#99 = CC_DESIGN_APPROVAL ( #139, ( #129 ) ) ;
#100 = CLOSED_SHELL ( 'NONE', ( #102, #160, #55, #40 ) ) ;
#101 = CC_DESIGN_APPROVAL ( #90, ( #74 ) ) ;
#102 = ADVANCED_FACE ( 'NONE', ( #156 ), #25, .T. ) ;
#103 = APPROVAL_DATE_TIME ( #71, #90 ) ;
#104 = ORIENTED_EDGE ( 'NONE', *, *, #8, .T. ) ;
#105 = FACE_OUTER_BOUND ( 'NONE', #92, .T. ) ;
#106 = FACE_OUTER_BOUND ( 'NONE', #113, .T. ) ;
#107 = CC_DESIGN_PERSON_AND_ORGANIZATION_ASSIGNMENT ( #172, #109, ( #129 ) ) ;
#108 = APPLICATION_CONTEXT ( 'configuration controlled 3d designs of mechanical parts and assemblies' ) ;
#109 = PERSON_AND_ORGANIZATION_ROLE ( 'design_supplier' ) ;
#110 = CC_DESIGN_SECURITY_CLASSIFICATION ( #74, ( #129 ) ) ;
#111 = DIRECTION ( 'NONE',  ( 0.0000000000000000000, 0.0000000000000000000, 1.000000000000000000 ) ) ;
#112 = APPROVAL_PERSON_ORGANIZATION ( #24, #90, #30 ) ;
#113 = EDGE_LOOP ( 'NONE', ( #45, #120 ) ) ;
#114 = DIRECTION ( 'NONE',  ( -0.0000000000000000000, -0.0000000000000000000, -1.000000000000000000 ) ) ;
#115 = APPROVAL_DATE_TIME ( #141, #139 ) ;
#116 = DATE_AND_TIME ( #56, #82 ) ;
#117 = PRODUCT_RELATED_PRODUCT_CATEGORY ( 'detail', '', ( #60 ) ) ;
#118 = CIRCLE ( 'NONE', #154, 25.00000000000000000 ) ;
#119 = AXIS2_PLACEMENT_3D ( 'NONE', #33, #9, #36 ) ;
#120 = ORIENTED_EDGE ( 'NONE', *, *, #37, .T. ) ;
#121 = PERSON_AND_ORGANIZATION_ROLE ( 'creator' ) ;
#122 = AXIS2_PLACEMENT_3D ( 'NONE', #97, #114, #147 ) ;
#123 = DATE_TIME_ROLE ( 'classification_date' ) ;
#124 = CARTESIAN_POINT ( 'NONE',  ( 25.00000000000000000, 3.061616997868383000E-015, 0.5500000000000000400 ) ) ;
#125 = DIRECTION ( 'NONE',  ( 1.000000000000000000, 0.0000000000000000000, 0.0000000000000000000 ) ) ;
#126 = COORDINATED_UNIVERSAL_TIME_OFFSET ( 5, 0, .BEHIND. ) ;
#127 = LOCAL_TIME ( 15, 7, 18.00000000000000000, #162 ) ;
#128 = CIRCLE ( 'NONE', #148, 25.00000000000000000 ) ;
#129 = PRODUCT_DEFINITION_FORMATION_WITH_SPECIFIED_SOURCE ( 'ANY', '', #60, .NOT_KNOWN. ) ;
#130 = VECTOR ( 'NONE', #34, 1000.000000000000000 ) ;
#131 = PERSON_AND_ORGANIZATION ( #149, #54 ) ;
#132 =( NAMED_UNIT ( * ) PLANE_ANGLE_UNIT ( ) SI_UNIT ( $, .RADIAN. ) );
#133 = DIRECTION ( 'NONE',  ( 1.000000000000000000, 0.0000000000000000000, -0.0000000000000000000 ) ) ;
#134 = LOCAL_TIME ( 15, 7, 18.00000000000000000, #4 ) ;
#135 = LOCAL_TIME ( 15, 7, 18.00000000000000000, #126 ) ;
#136 = VERTEX_POINT ( 'NONE', #6 ) ;
#137 = PLANE ( 'NONE',  #96 ) ;
#138 = PLANE ( 'NONE',  #175 ) ;
#139 = APPROVAL ( #2, 'UNSPECIFIED' ) ;
#140 = EDGE_LOOP ( 'NONE', ( #159, #67, #88, #73 ) ) ;
#141 = DATE_AND_TIME ( #51, #87 ) ;
#142 = CYLINDRICAL_SURFACE ( 'NONE', #122, 25.00000000000000000 ) ;
#143 = ADVANCED_BREP_SHAPE_REPRESENTATION ( 'Web Model +5-75mm Indoor Hydrophobic Windows_36073', ( #163, #39 ), #62 ) ;
#144 = CARTESIAN_POINT ( 'NONE',  ( -25.00000000000000000, 0.0000000000000000000, -0.5500000000000000400 ) ) ;
#145 = APPROVAL_STATUS ( 'not_yet_approved' ) ;
#146 = CARTESIAN_POINT ( 'NONE',  ( 0.0000000000000000000, 0.0000000000000000000, 0.5500000000000000400 ) ) ;
#147 = DIRECTION ( 'NONE',  ( -1.000000000000000000, 0.0000000000000000000, 0.0000000000000000000 ) ) ;
#148 = AXIS2_PLACEMENT_3D ( 'NONE', #78, #167, #152 ) ;
#149 = PERSON ( 'UNSPECIFIED', 'UNSPECIFIED', 'UNSPECIFIED', ('UNSPECIFIED'), ('UNSPECIFIED'), ('UNSPECIFIED') ) ;
#150 = CALENDAR_DATE ( 2017, 7, 9 ) ;
#151 = APPROVAL_PERSON_ORGANIZATION ( #77, #47, #63 ) ;
#152 = DIRECTION ( 'NONE',  ( 1.000000000000000000, 0.0000000000000000000, 0.0000000000000000000 ) ) ;
#153 = DIRECTION ( 'NONE',  ( 1.000000000000000000, 0.0000000000000000000, 0.0000000000000000000 ) ) ;
#154 = AXIS2_PLACEMENT_3D ( 'NONE', #20, #83, #125 ) ;
#155 = DIRECTION ( 'NONE',  ( 0.0000000000000000000, 0.0000000000000000000, 1.000000000000000000 ) ) ;
#156 = FACE_OUTER_BOUND ( 'NONE', #52, .T. ) ;
#157 = AXIS2_PLACEMENT_3D ( 'NONE', #64, #155, #153 ) ;
#158 = CALENDAR_DATE ( 2017, 7, 9 ) ;
#159 = ORIENTED_EDGE ( 'NONE', *, *, #8, .F. ) ;
#160 = ADVANCED_FACE ( 'NONE', ( #15 ), #142, .T. ) ;
#161 = PRODUCT_DEFINITION ( 'UNKNOWN', '', #129, #49 ) ;
#162 = COORDINATED_UNIVERSAL_TIME_OFFSET ( 5, 0, .BEHIND. ) ;
#163 = MANIFOLD_SOLID_BREP ( 'Boss-Extrude1', #100 ) ;
#164 =( LENGTH_UNIT ( ) NAMED_UNIT ( * ) SI_UNIT ( .MILLI., .METRE. ) );
#165 = VECTOR ( 'NONE', #19, 1000.000000000000000 ) ;
#166 = APPLICATION_CONTEXT ( 'configuration controlled 3d designs of mechanical parts and assemblies' ) ;
#167 = DIRECTION ( 'NONE',  ( 0.0000000000000000000, 0.0000000000000000000, 1.000000000000000000 ) ) ;
#168 = CARTESIAN_POINT ( 'NONE',  ( 25.00000000000000000, 3.061616997868383000E-015, 0.5500000000000000400 ) ) ;
#169 = UNCERTAINTY_MEASURE_WITH_UNIT (LENGTH_MEASURE( 1.000000000000000100E-005 ), #164, 'distance_accuracy_value', 'NONE');
#170 = DIRECTION ( 'NONE',  ( 0.0000000000000000000, 0.0000000000000000000, 1.000000000000000000 ) ) ;
#171 = PERSON_AND_ORGANIZATION ( #149, #54 ) ;
#172 = PERSON_AND_ORGANIZATION ( #149, #54 ) ;
#173 = APPROVAL_DATE_TIME ( #29, #47 ) ;
#174 = EDGE_CURVE ( 'NONE', #72, #23, #128, .T. ) ;
#175 = AXIS2_PLACEMENT_3D ( 'NONE', #146, #170, #21 ) ;
ENDSEC;
END-ISO-10303-21;
