ISO-10303-21;
HEADER;
FILE_DESCRIPTION (( 'STEP AP203' ),
    '1' );
FILE_NAME ('43369C_36460.step',
    '2017-07-20T12:44:47',
    ( '' ),
    ( '' ),
    'SwSTEP 2.0',
    'SolidWorks 2016',
    '' );
FILE_SCHEMA (( 'CONFIG_CONTROL_DESIGN' ));
ENDSEC;

DATA;
#1 = LOCAL_TIME ( 8, 44, 47.00000000000000000, #31 ) ;
#2 = VERTEX_POINT ( 'NONE', #137 ) ;
#3 = APPROVAL_ROLE ( '' ) ;
#4 = DIRECTION ( 'NONE',  ( -0.0000000000000000000, -0.0000000000000000000, -1.000000000000000000 ) ) ;
#5 = DIRECTION ( 'NONE',  ( 0.0000000000000000000, 0.0000000000000000000, 1.000000000000000000 ) ) ;
#6 = AXIS2_PLACEMENT_3D ( 'NONE', #15, #52, #164 ) ;
#7 = FACE_OUTER_BOUND ( 'NONE', #78, .T. ) ;
#8 = PRODUCT ( '43369C_36460', '43369C_36460', '', ( #38 ) ) ;
#9 = ORIENTED_EDGE ( 'NONE', *, *, #134, .T. ) ;
#10 = CARTESIAN_POINT ( 'NONE',  ( 0.0000000000000000000, 0.0000000000000000000, 0.0000000000000000000 ) ) ;
#11 = DIRECTION ( 'NONE',  ( 0.0000000000000000000, 0.0000000000000000000, 1.000000000000000000 ) ) ;
#12 = COORDINATED_UNIVERSAL_TIME_OFFSET ( 5, 0, .BEHIND. ) ;
#13 = DIRECTION ( 'NONE',  ( 1.000000000000000000, 0.0000000000000000000, 0.0000000000000000000 ) ) ;
#14 = ORIENTED_EDGE ( 'NONE', *, *, #23, .T. ) ;
#15 = CARTESIAN_POINT ( 'NONE',  ( 0.0000000000000000000, 0.0000000000000000000, 1.149999999999999900 ) ) ;
#16 = CARTESIAN_POINT ( 'NONE',  ( 0.0000000000000000000, 0.0000000000000000000, 1.149999999999999900 ) ) ;
#17 = PERSON_AND_ORGANIZATION ( #62, #115 ) ;
#18 = PERSON_AND_ORGANIZATION ( #62, #115 ) ;
#19 = ORIENTED_EDGE ( 'NONE', *, *, #125, .T. ) ;
#20 = ADVANCED_FACE ( 'NONE', ( #33 ), #112, .T. ) ;
#21 = AXIS2_PLACEMENT_3D ( 'NONE', #124, #168, #73 ) ;
#22 = APPROVAL_ROLE ( '' ) ;
#23 = EDGE_CURVE ( 'NONE', #39, #28, #132, .T. ) ;
#24 = DIRECTION ( 'NONE',  ( 1.000000000000000000, 0.0000000000000000000, -0.0000000000000000000 ) ) ;
#25 = CYLINDRICAL_SURFACE ( 'NONE', #40, 12.50000000000000000 ) ;
#26 = CLOSED_SHELL ( 'NONE', ( #92, #20, #146, #32 ) ) ;
#27 =( NAMED_UNIT ( * ) SI_UNIT ( $, .STERADIAN. ) SOLID_ANGLE_UNIT ( ) );
#28 = VERTEX_POINT ( 'NONE', #140 ) ;
#29 = ORIENTED_EDGE ( 'NONE', *, *, #147, .F. ) ;
#30 = AXIS2_PLACEMENT_3D ( 'NONE', #162, #11, #160 ) ;
#31 = COORDINATED_UNIVERSAL_TIME_OFFSET ( 5, 0, .BEHIND. ) ;
#32 = ADVANCED_FACE ( 'NONE', ( #145 ), #85, .F. ) ;
#33 = FACE_OUTER_BOUND ( 'NONE', #61, .T. ) ;
#34 = PRODUCT_DEFINITION_SHAPE ( 'NONE', 'NONE',  #68 ) ;
#35 = APPROVAL_PERSON_ORGANIZATION ( #156, #120, #105 ) ;
#36 = ORIENTED_EDGE ( 'NONE', *, *, #153, .F. ) ;
#37 =( NAMED_UNIT ( * ) PLANE_ANGLE_UNIT ( ) SI_UNIT ( $, .RADIAN. ) );
#38 = MECHANICAL_CONTEXT ( 'NONE', #93, 'mechanical' ) ;
#39 = VERTEX_POINT ( 'NONE', #165 ) ;
#40 = AXIS2_PLACEMENT_3D ( 'NONE', #16, #122, #99 ) ;
#41 = ADVANCED_BREP_SHAPE_REPRESENTATION ( '43369C_36460', ( #163, #47 ), #79 ) ;
#42 = VERTEX_POINT ( 'NONE', #141 ) ;
#43 = ORIENTED_EDGE ( 'NONE', *, *, #134, .F. ) ;
#44 = CARTESIAN_POINT ( 'NONE',  ( -12.50000000000000000, 0.0000000000000000000, 1.149999999999999900 ) ) ;
#45 = DATE_AND_TIME ( #114, #75 ) ;
#46 = ORIENTED_EDGE ( 'NONE', *, *, #53, .T. ) ;
#47 = AXIS2_PLACEMENT_3D ( 'NONE', #10, #133, #96 ) ;
#48 = AXIS2_PLACEMENT_3D ( 'NONE', #108, #50, #158 ) ;
#49 = APPROVAL_DATE_TIME ( #45, #77 ) ;
#50 = DIRECTION ( 'NONE',  ( 0.0000000000000000000, 0.0000000000000000000, 1.000000000000000000 ) ) ;
#51 = APPROVAL_STATUS ( 'not_yet_approved' ) ;
#52 = DIRECTION ( 'NONE',  ( -0.0000000000000000000, -0.0000000000000000000, -1.000000000000000000 ) ) ;
#53 = EDGE_CURVE ( 'NONE', #42, #39, #151, .T. ) ;
#54 = SECURITY_CLASSIFICATION_LEVEL ( 'unclassified' ) ;
#55 = PERSON_AND_ORGANIZATION ( #62, #115 ) ;
#56 = PERSON_AND_ORGANIZATION_ROLE ( 'creator' ) ;
#57 = CC_DESIGN_PERSON_AND_ORGANIZATION_ASSIGNMENT ( #83, #63, ( #8 ) ) ;
#58 = AXIS2_PLACEMENT_3D ( 'NONE', #148, #81, #24 ) ;
#59 = DATE_AND_TIME ( #166, #94 ) ;
#60 = VECTOR ( 'NONE', #4, 1000.000000000000000 ) ;
#61 = EDGE_LOOP ( 'NONE', ( #154, #43, #46, #14 ) ) ;
#62 = PERSON ( 'UNSPECIFIED', 'UNSPECIFIED', 'UNSPECIFIED', ('UNSPECIFIED'), ('UNSPECIFIED'), ('UNSPECIFIED') ) ;
#63 = PERSON_AND_ORGANIZATION_ROLE ( 'design_owner' ) ;
#64 = COORDINATED_UNIVERSAL_TIME_OFFSET ( 5, 0, .BEHIND. ) ;
#65 =( LENGTH_UNIT ( ) NAMED_UNIT ( * ) SI_UNIT ( .MILLI., .METRE. ) );
#66 = DATE_TIME_ROLE ( 'creation_date' ) ;
#67 = APPLICATION_PROTOCOL_DEFINITION ( 'international standard', 'config_control_design', 1994, #93 ) ;
#68 = PRODUCT_DEFINITION ( 'UNKNOWN', '', #111, #135 ) ;
#69 = AXIS2_PLACEMENT_3D ( 'NONE', #175, #116, #13 ) ;
#70 = PERSON_AND_ORGANIZATION ( #62, #115 ) ;
#71 = SHAPE_DEFINITION_REPRESENTATION ( #34, #41 ) ;
#72 = DATE_TIME_ROLE ( 'classification_date' ) ;
#73 = DIRECTION ( 'NONE',  ( 1.000000000000000000, 0.0000000000000000000, -0.0000000000000000000 ) ) ;
#74 = EDGE_LOOP ( 'NONE', ( #9, #113 ) ) ;
#75 = LOCAL_TIME ( 8, 44, 47.00000000000000000, #64 ) ;
#76 = CIRCLE ( 'NONE', #48, 12.50000000000000000 ) ;
#77 = APPROVAL ( #51, 'UNSPECIFIED' ) ;
#78 = EDGE_LOOP ( 'NONE', ( #36, #19, #171, #130 ) ) ;
#79 =( GEOMETRIC_REPRESENTATION_CONTEXT ( 3 ) GLOBAL_UNCERTAINTY_ASSIGNED_CONTEXT ( ( #136 ) ) GLOBAL_UNIT_ASSIGNED_CONTEXT ( ( #65, #37, #27 ) ) REPRESENTATION_CONTEXT ( 'NONE', 'WORKASPACE' ) );
#80 = FACE_OUTER_BOUND ( 'NONE', #74, .T. ) ;
#81 = DIRECTION ( 'NONE',  ( 0.0000000000000000000, 0.0000000000000000000, 1.000000000000000000 ) ) ;
#82 = LOCAL_TIME ( 8, 44, 47.00000000000000000, #12 ) ;
#83 = PERSON_AND_ORGANIZATION ( #62, #115 ) ;
#84 = PERSON_AND_ORGANIZATION_ROLE ( 'design_supplier' ) ;
#85 = PLANE ( 'NONE',  #21 ) ;
#86 = PERSON_AND_ORGANIZATION_ROLE ( 'classification_officer' ) ;
#87 = CARTESIAN_POINT ( 'NONE',  ( 12.50000000000000000, 1.530808498934191500E-015, 1.149999999999999900 ) ) ;
#88 = CALENDAR_DATE ( 2017, 20, 7 ) ;
#89 = DIRECTION ( 'NONE',  ( 1.000000000000000000, 0.0000000000000000000, 0.0000000000000000000 ) ) ;
#90 = CC_DESIGN_APPROVAL ( #77, ( #68 ) ) ;
#91 = DATE_AND_TIME ( #121, #82 ) ;
#92 = ADVANCED_FACE ( 'NONE', ( #7 ), #25, .T. ) ;
#93 = APPLICATION_CONTEXT ( 'configuration controlled 3d designs of mechanical parts and assemblies' ) ;
#94 = LOCAL_TIME ( 8, 44, 47.00000000000000000, #118 ) ;
#95 = APPLICATION_PROTOCOL_DEFINITION ( 'international standard', 'config_control_design', 1994, #174 ) ;
#96 = DIRECTION ( 'NONE',  ( 1.000000000000000000, 0.0000000000000000000, 0.0000000000000000000 ) ) ;
#97 = CC_DESIGN_PERSON_AND_ORGANIZATION_ASSIGNMENT ( #18, #107, ( #68 ) ) ;
#98 = PERSON_AND_ORGANIZATION ( #62, #115 ) ;
#99 = DIRECTION ( 'NONE',  ( -1.000000000000000000, 0.0000000000000000000, 0.0000000000000000000 ) ) ;
#100 = CARTESIAN_POINT ( 'NONE',  ( 0.0000000000000000000, 0.0000000000000000000, -1.149999999999999900 ) ) ;
#101 = APPROVAL_PERSON_ORGANIZATION ( #55, #77, #22 ) ;
#102 = LINE ( 'NONE', #87, #60 ) ;
#103 = CC_DESIGN_DATE_AND_TIME_ASSIGNMENT ( #91, #66, ( #68 ) ) ;
#104 = DATE_AND_TIME ( #88, #173 ) ;
#105 = APPROVAL_ROLE ( '' ) ;
#106 = CIRCLE ( 'NONE', #69, 12.50000000000000000 ) ;
#107 = PERSON_AND_ORGANIZATION_ROLE ( 'creator' ) ;
#108 = CARTESIAN_POINT ( 'NONE',  ( 0.0000000000000000000, 0.0000000000000000000, -1.149999999999999900 ) ) ;
#109 = DIRECTION ( 'NONE',  ( -0.0000000000000000000, -0.0000000000000000000, -1.000000000000000000 ) ) ;
#110 = SECURITY_CLASSIFICATION ( '', '', #54 ) ;
#111 = PRODUCT_DEFINITION_FORMATION_WITH_SPECIFIED_SOURCE ( 'ANY', '', #8, .NOT_KNOWN. ) ;
#112 = CYLINDRICAL_SURFACE ( 'NONE', #6, 12.50000000000000000 ) ;
#113 = ORIENTED_EDGE ( 'NONE', *, *, #153, .T. ) ;
#114 = CALENDAR_DATE ( 2017, 20, 7 ) ;
#115 = ORGANIZATION ( 'UNSPECIFIED', 'UNSPECIFIED', '' ) ;
#116 = DIRECTION ( 'NONE',  ( 0.0000000000000000000, 0.0000000000000000000, 1.000000000000000000 ) ) ;
#117 = APPROVAL_STATUS ( 'not_yet_approved' ) ;
#118 = COORDINATED_UNIVERSAL_TIME_OFFSET ( 5, 0, .BEHIND. ) ;
#119 = CC_DESIGN_PERSON_AND_ORGANIZATION_ASSIGNMENT ( #98, #86, ( #110 ) ) ;
#120 = APPROVAL ( #117, 'UNSPECIFIED' ) ;
#121 = CALENDAR_DATE ( 2017, 20, 7 ) ;
#122 = DIRECTION ( 'NONE',  ( -0.0000000000000000000, -0.0000000000000000000, -1.000000000000000000 ) ) ;
#123 = ORIENTED_EDGE ( 'NONE', *, *, #23, .F. ) ;
#124 = CARTESIAN_POINT ( 'NONE',  ( 0.0000000000000000000, 0.0000000000000000000, -1.149999999999999900 ) ) ;
#125 = EDGE_CURVE ( 'NONE', #2, #28, #102, .T. ) ;
#126 = APPROVAL_DATE_TIME ( #59, #120 ) ;
#127 = VECTOR ( 'NONE', #109, 1000.000000000000000 ) ;
#128 = CC_DESIGN_DATE_AND_TIME_ASSIGNMENT ( #104, #72, ( #110 ) ) ;
#129 = CC_DESIGN_APPROVAL ( #120, ( #111 ) ) ;
#130 = ORIENTED_EDGE ( 'NONE', *, *, #53, .F. ) ;
#131 = APPROVAL_DATE_TIME ( #144, #142 ) ;
#132 = CIRCLE ( 'NONE', #172, 12.50000000000000000 ) ;
#133 = DIRECTION ( 'NONE',  ( 0.0000000000000000000, 0.0000000000000000000, 1.000000000000000000 ) ) ;
#134 = EDGE_CURVE ( 'NONE', #42, #2, #161, .T. ) ;
#135 = DESIGN_CONTEXT ( 'detailed design', #174, 'design' ) ;
#136 = UNCERTAINTY_MEASURE_WITH_UNIT (LENGTH_MEASURE( 1.000000000000000100E-005 ), #65, 'distance_accuracy_value', 'NONE');
#137 = CARTESIAN_POINT ( 'NONE',  ( 12.50000000000000000, 1.530808498934191500E-015, 1.149999999999999900 ) ) ;
#138 = APPROVAL_PERSON_ORGANIZATION ( #17, #142, #3 ) ;
#139 = APPROVAL_STATUS ( 'not_yet_approved' ) ;
#140 = CARTESIAN_POINT ( 'NONE',  ( 12.50000000000000000, 1.530808498934191500E-015, -1.149999999999999900 ) ) ;
#141 = CARTESIAN_POINT ( 'NONE',  ( -12.50000000000000000, 0.0000000000000000000, 1.149999999999999900 ) ) ;
#142 = APPROVAL ( #139, 'UNSPECIFIED' ) ;
#143 = CC_DESIGN_PERSON_AND_ORGANIZATION_ASSIGNMENT ( #159, #56, ( #111 ) ) ;
#144 = DATE_AND_TIME ( #170, #1 ) ;
#145 = FACE_OUTER_BOUND ( 'NONE', #155, .T. ) ;
#146 = ADVANCED_FACE ( 'NONE', ( #80 ), #167, .T. ) ;
#147 = EDGE_CURVE ( 'NONE', #28, #39, #76, .T. ) ;
#148 = CARTESIAN_POINT ( 'NONE',  ( 0.0000000000000000000, 0.0000000000000000000, 1.149999999999999900 ) ) ;
#149 = CC_DESIGN_APPROVAL ( #142, ( #110 ) ) ;
#150 = CC_DESIGN_PERSON_AND_ORGANIZATION_ASSIGNMENT ( #70, #84, ( #111 ) ) ;
#151 = LINE ( 'NONE', #44, #127 ) ;
#152 = COORDINATED_UNIVERSAL_TIME_OFFSET ( 5, 0, .BEHIND. ) ;
#153 = EDGE_CURVE ( 'NONE', #2, #42, #106, .T. ) ;
#154 = ORIENTED_EDGE ( 'NONE', *, *, #125, .F. ) ;
#155 = EDGE_LOOP ( 'NONE', ( #123, #29 ) ) ;
#156 = PERSON_AND_ORGANIZATION ( #62, #115 ) ;
#157 = CC_DESIGN_SECURITY_CLASSIFICATION ( #110, ( #111 ) ) ;
#158 = DIRECTION ( 'NONE',  ( 1.000000000000000000, 0.0000000000000000000, 0.0000000000000000000 ) ) ;
#159 = PERSON_AND_ORGANIZATION ( #62, #115 ) ;
#160 = DIRECTION ( 'NONE',  ( 1.000000000000000000, 0.0000000000000000000, 0.0000000000000000000 ) ) ;
#161 = CIRCLE ( 'NONE', #30, 12.50000000000000000 ) ;
#162 = CARTESIAN_POINT ( 'NONE',  ( 0.0000000000000000000, 0.0000000000000000000, 1.149999999999999900 ) ) ;
#163 = MANIFOLD_SOLID_BREP ( 'Boss-Extrude1', #26 ) ;
#164 = DIRECTION ( 'NONE',  ( -1.000000000000000000, 0.0000000000000000000, 0.0000000000000000000 ) ) ;
#165 = CARTESIAN_POINT ( 'NONE',  ( -12.50000000000000000, 0.0000000000000000000, -1.149999999999999900 ) ) ;
#166 = CALENDAR_DATE ( 2017, 20, 7 ) ;
#167 = PLANE ( 'NONE',  #58 ) ;
#168 = DIRECTION ( 'NONE',  ( 0.0000000000000000000, 0.0000000000000000000, 1.000000000000000000 ) ) ;
#169 = PRODUCT_RELATED_PRODUCT_CATEGORY ( 'detail', '', ( #8 ) ) ;
#170 = CALENDAR_DATE ( 2017, 20, 7 ) ;
#171 = ORIENTED_EDGE ( 'NONE', *, *, #147, .T. ) ;
#172 = AXIS2_PLACEMENT_3D ( 'NONE', #100, #5, #89 ) ;
#173 = LOCAL_TIME ( 8, 44, 47.00000000000000000, #152 ) ;
#174 = APPLICATION_CONTEXT ( 'configuration controlled 3d designs of mechanical parts and assemblies' ) ;
#175 = CARTESIAN_POINT ( 'NONE',  ( 0.0000000000000000000, 0.0000000000000000000, 1.149999999999999900 ) ) ;
ENDSEC;
END-ISO-10303-21;
