ISO-10303-21;
HEADER;
FILE_DESCRIPTION (( 'STEP AP203' ),
    '1' );
FILE_NAME ('Web Model 43369_15995.step',
    '2020-10-21T18:24:06',
    ( '' ),
    ( '' ),
    'SwSTEP 2.0',
    'SolidWorks 2018',
    '' );
FILE_SCHEMA (( 'CONFIG_CONTROL_DESIGN' ));
ENDSEC;

DATA;
#1 = DIRECTION ( 'NONE',  ( 0.0000000000000000000, 0.0000000000000000000, 1.000000000000000000 ) ) ;
#2 = COORDINATED_UNIVERSAL_TIME_OFFSET ( 5, 0, .BEHIND. ) ;
#3 = AXIS2_PLACEMENT_3D ( 'NONE', #40, #1, #49 ) ;
#4 = UNCERTAINTY_MEASURE_WITH_UNIT (LENGTH_MEASURE( 1.000000000000000082E-05 ), #124, 'distance_accuracy_value', 'NONE');
#5 = PLANE ( 'NONE',  #87 ) ;
#6 = CARTESIAN_POINT ( 'NONE',  ( 0.0000000000000000000, 0.0000000000000000000, 0.0000000000000000000 ) ) ;
#7 = LINE ( 'NONE', #93, #123 ) ;
#8 = APPROVAL_STATUS ( 'not_yet_approved' ) ;
#9 = DATE_AND_TIME ( #106, #133 ) ;
#10 = PERSON ( 'UNSPECIFIED', 'UNSPECIFIED', 'UNSPECIFIED', ('UNSPECIFIED'), ('UNSPECIFIED'), ('UNSPECIFIED') ) ;
#11 = DATE_AND_TIME ( #155, #141 ) ;
#12 = LOCAL_TIME ( 14, 24, 6.000000000000000000, #2 ) ;
#13 = EDGE_CURVE ( 'NONE', #44, #110, #41, .T. ) ;
#14 = PERSON_AND_ORGANIZATION ( #10, #134 ) ;
#15 = ORIENTED_EDGE ( 'NONE', *, *, #13, .T. ) ;
#16 = CC_DESIGN_DATE_AND_TIME_ASSIGNMENT ( #11, #169, ( #89 ) ) ;
#17 = DIRECTION ( 'NONE',  ( 0.0000000000000000000, 0.0000000000000000000, 1.000000000000000000 ) ) ;
#18 = APPROVAL_PERSON_ORGANIZATION ( #25, #36, #21 ) ;
#19 = AXIS2_PLACEMENT_3D ( 'NONE', #136, #149, #82 ) ;
#20 = DIRECTION ( 'NONE',  ( 1.000000000000000000, 0.0000000000000000000, 0.0000000000000000000 ) ) ;
#21 = APPROVAL_ROLE ( '' ) ;
#22 = ORIENTED_EDGE ( 'NONE', *, *, #121, .T. ) ;
#23 = AXIS2_PLACEMENT_3D ( 'NONE', #39, #137, #85 ) ;
#24 = APPROVAL ( #8, 'UNSPECIFIED' ) ;
#25 = PERSON_AND_ORGANIZATION ( #10, #134 ) ;
#26 = EDGE_CURVE ( 'NONE', #117, #44, #7, .T. ) ;
#27 = APPROVAL_PERSON_ORGANIZATION ( #14, #24, #100 ) ;
#28 = DIRECTION ( 'NONE',  ( 0.0000000000000000000, 0.0000000000000000000, 1.000000000000000000 ) ) ;
#29 = DIRECTION ( 'NONE',  ( 0.0000000000000000000, 0.0000000000000000000, 1.000000000000000000 ) ) ;
#30 = AXIS2_PLACEMENT_3D ( 'NONE', #70, #17, #135 ) ;
#31 = PERSON_AND_ORGANIZATION_ROLE ( 'design_supplier' ) ;
#32 = DIRECTION ( 'NONE',  ( 0.0000000000000000000, 0.0000000000000000000, 1.000000000000000000 ) ) ;
#33 = ADVANCED_FACE ( 'NONE', ( #90 ), #67, .T. ) ;
#34 = APPROVAL_DATE_TIME ( #103, #24 ) ;
#35 = CC_DESIGN_SECURITY_CLASSIFICATION ( #89, ( #81 ) ) ;
#36 = APPROVAL ( #167, 'UNSPECIFIED' ) ;
#37 = APPROVAL_DATE_TIME ( #9, #173 ) ;
#38 = ORIENTED_EDGE ( 'NONE', *, *, #83, .F. ) ;
#39 = CARTESIAN_POINT ( 'NONE',  ( 0.0000000000000000000, 0.0000000000000000000, 2.299999999999999822 ) ) ;
#40 = CARTESIAN_POINT ( 'NONE',  ( 0.0000000000000000000, 0.0000000000000000000, 2.299999999999999822 ) ) ;
#41 = CIRCLE ( 'NONE', #116, 12.50000000000000000 ) ;
#42 = CARTESIAN_POINT ( 'NONE',  ( 0.0000000000000000000, 0.0000000000000000000, 0.0000000000000000000 ) ) ;
#43 = PERSON_AND_ORGANIZATION ( #10, #134 ) ;
#44 = VERTEX_POINT ( 'NONE', #50 ) ;
#45 = AXIS2_PLACEMENT_3D ( 'NONE', #97, #29, #125 ) ;
#46 = CLOSED_SHELL ( 'NONE', ( #112, #33, #170, #84 ) ) ;
#47 = CC_DESIGN_APPROVAL ( #173, ( #81 ) ) ;
#48 = CC_DESIGN_APPROVAL ( #36, ( #164 ) ) ;
#49 = DIRECTION ( 'NONE',  ( 1.000000000000000000, 0.0000000000000000000, -0.0000000000000000000 ) ) ;
#50 = CARTESIAN_POINT ( 'NONE',  ( -12.50000000000000000, 0.0000000000000000000, 0.0000000000000000000 ) ) ;
#51 = CARTESIAN_POINT ( 'NONE',  ( 0.0000000000000000000, 0.0000000000000000000, 0.0000000000000000000 ) ) ;
#52 = DATE_TIME_ROLE ( 'creation_date' ) ;
#53 = FACE_OUTER_BOUND ( 'NONE', #92, .T. ) ;
#54 = APPLICATION_PROTOCOL_DEFINITION ( 'international standard', 'config_control_design', 1994, #154 ) ;
#55 = FACE_OUTER_BOUND ( 'NONE', #109, .T. ) ;
#56 = APPROVAL_ROLE ( '' ) ;
#57 = DATE_AND_TIME ( #144, #104 ) ;
#58 = ORIENTED_EDGE ( 'NONE', *, *, #26, .F. ) ;
#59 = CC_DESIGN_PERSON_AND_ORGANIZATION_ASSIGNMENT ( #43, #75, ( #164 ) ) ;
#60 = MANIFOLD_SOLID_BREP ( 'Boss-Extrude1', #46 ) ;
#61 = LOCAL_TIME ( 14, 24, 6.000000000000000000, #108 ) ;
#62 =( GEOMETRIC_REPRESENTATION_CONTEXT ( 3 ) GLOBAL_UNCERTAINTY_ASSIGNED_CONTEXT ( ( #4 ) ) GLOBAL_UNIT_ASSIGNED_CONTEXT ( ( #124, #72, #166 ) ) REPRESENTATION_CONTEXT ( 'NONE', 'WORKASPACE' ) );
#63 = ORIENTED_EDGE ( 'NONE', *, *, #111, .F. ) ;
#64 = APPROVAL_PERSON_ORGANIZATION ( #128, #173, #56 ) ;
#65 = CIRCLE ( 'NONE', #30, 12.50000000000000000 ) ;
#66 = CARTESIAN_POINT ( 'NONE',  ( 12.50000000000000000, 1.530808498934191521E-15, 0.0000000000000000000 ) ) ;
#67 = CYLINDRICAL_SURFACE ( 'NONE', #23, 12.50000000000000000 ) ;
#68 = DIRECTION ( 'NONE',  ( 1.000000000000000000, 0.0000000000000000000, -0.0000000000000000000 ) ) ;
#69 = EDGE_LOOP ( 'NONE', ( #160, #22, #143, #58 ) ) ;
#70 = CARTESIAN_POINT ( 'NONE',  ( 0.0000000000000000000, 0.0000000000000000000, 2.299999999999999822 ) ) ;
#71 = CC_DESIGN_DATE_AND_TIME_ASSIGNMENT ( #162, #52, ( #164 ) ) ;
#72 =( NAMED_UNIT ( * ) PLANE_ANGLE_UNIT ( ) SI_UNIT ( $, .RADIAN. ) );
#73 = COORDINATED_UNIVERSAL_TIME_OFFSET ( 5, 0, .BEHIND. ) ;
#74 = APPROVAL_STATUS ( 'not_yet_approved' ) ;
#75 = PERSON_AND_ORGANIZATION_ROLE ( 'creator' ) ;
#76 = SECURITY_CLASSIFICATION_LEVEL ( 'unclassified' ) ;
#77 = CC_DESIGN_PERSON_AND_ORGANIZATION_ASSIGNMENT ( #115, #156, ( #81 ) ) ;
#78 = CYLINDRICAL_SURFACE ( 'NONE', #19, 12.50000000000000000 ) ;
#79 = DIRECTION ( 'NONE',  ( -0.0000000000000000000, -0.0000000000000000000, -1.000000000000000000 ) ) ;
#80 = COORDINATED_UNIVERSAL_TIME_OFFSET ( 5, 0, .BEHIND. ) ;
#81 = PRODUCT_DEFINITION_FORMATION_WITH_SPECIFIED_SOURCE ( 'ANY', '', #99, .NOT_KNOWN. ) ;
#82 = DIRECTION ( 'NONE',  ( -1.000000000000000000, 0.0000000000000000000, 0.0000000000000000000 ) ) ;
#83 = EDGE_CURVE ( 'NONE', #117, #130, #65, .T. ) ;
#84 = ADVANCED_FACE ( 'NONE', ( #55 ), #5, .F. ) ;
#85 = DIRECTION ( 'NONE',  ( -1.000000000000000000, 0.0000000000000000000, 0.0000000000000000000 ) ) ;
#86 = EDGE_CURVE ( 'NONE', #130, #117, #118, .T. ) ;
#87 = AXIS2_PLACEMENT_3D ( 'NONE', #51, #28, #68 ) ;
#88 = PERSON_AND_ORGANIZATION_ROLE ( 'design_owner' ) ;
#89 = SECURITY_CLASSIFICATION ( '', '', #76 ) ;
#90 = FACE_OUTER_BOUND ( 'NONE', #95, .T. ) ;
#91 = AXIS2_PLACEMENT_3D ( 'NONE', #42, #32, #127 ) ;
#92 = EDGE_LOOP ( 'NONE', ( #152, #165 ) ) ;
#93 = CARTESIAN_POINT ( 'NONE',  ( -12.50000000000000000, 0.0000000000000000000, 2.299999999999999822 ) ) ;
#94 = DIRECTION ( 'NONE',  ( 1.000000000000000000, 0.0000000000000000000, 0.0000000000000000000 ) ) ;
#95 = EDGE_LOOP ( 'NONE', ( #131, #38, #157, #15 ) ) ;
#96 = CARTESIAN_POINT ( 'NONE',  ( -12.50000000000000000, 0.0000000000000000000, 2.299999999999999822 ) ) ;
#97 = CARTESIAN_POINT ( 'NONE',  ( 0.0000000000000000000, 0.0000000000000000000, 2.299999999999999822 ) ) ;
#98 = PERSON_AND_ORGANIZATION ( #10, #134 ) ;
#99 = PRODUCT ( 'Web Model 43369_15995', 'Web Model 43369_15995', '', ( #138 ) ) ;
#100 = APPROVAL_ROLE ( '' ) ;
#101 = CC_DESIGN_APPROVAL ( #24, ( #89 ) ) ;
#102 = CARTESIAN_POINT ( 'NONE',  ( 0.0000000000000000000, 0.0000000000000000000, 0.0000000000000000000 ) ) ;
#103 = DATE_AND_TIME ( #114, #61 ) ;
#104 = LOCAL_TIME ( 14, 24, 6.000000000000000000, #80 ) ;
#105 = ORIENTED_EDGE ( 'NONE', *, *, #13, .F. ) ;
#106 = CALENDAR_DATE ( 2020, 21, 10 ) ;
#107 = CIRCLE ( 'NONE', #150, 12.50000000000000000 ) ;
#108 = COORDINATED_UNIVERSAL_TIME_OFFSET ( 5, 0, .BEHIND. ) ;
#109 = EDGE_LOOP ( 'NONE', ( #105, #63 ) ) ;
#110 = VERTEX_POINT ( 'NONE', #66 ) ;
#111 = EDGE_CURVE ( 'NONE', #110, #44, #107, .T. ) ;
#112 = ADVANCED_FACE ( 'NONE', ( #120 ), #78, .T. ) ;
#113 = VECTOR ( 'NONE', #163, 1000.000000000000000 ) ;
#114 = CALENDAR_DATE ( 2020, 21, 10 ) ;
#115 = PERSON_AND_ORGANIZATION ( #10, #134 ) ;
#116 = AXIS2_PLACEMENT_3D ( 'NONE', #102, #174, #94 ) ;
#117 = VERTEX_POINT ( 'NONE', #96 ) ;
#118 = CIRCLE ( 'NONE', #45, 12.50000000000000000 ) ;
#119 = PRODUCT_DEFINITION_SHAPE ( 'NONE', 'NONE',  #164 ) ;
#120 = FACE_OUTER_BOUND ( 'NONE', #69, .T. ) ;
#121 = EDGE_CURVE ( 'NONE', #130, #110, #147, .T. ) ;
#122 = DIRECTION ( 'NONE',  ( 0.0000000000000000000, 0.0000000000000000000, 1.000000000000000000 ) ) ;
#123 = VECTOR ( 'NONE', #79, 1000.000000000000000 ) ;
#124 =( LENGTH_UNIT ( ) NAMED_UNIT ( * ) SI_UNIT ( .MILLI., .METRE. ) );
#125 = DIRECTION ( 'NONE',  ( 1.000000000000000000, 0.0000000000000000000, 0.0000000000000000000 ) ) ;
#126 = PERSON_AND_ORGANIZATION_ROLE ( 'classification_officer' ) ;
#127 = DIRECTION ( 'NONE',  ( 1.000000000000000000, 0.0000000000000000000, 0.0000000000000000000 ) ) ;
#128 = PERSON_AND_ORGANIZATION ( #10, #134 ) ;
#129 = PRODUCT_RELATED_PRODUCT_CATEGORY ( 'detail', '', ( #99 ) ) ;
#130 = VERTEX_POINT ( 'NONE', #161 ) ;
#131 = ORIENTED_EDGE ( 'NONE', *, *, #121, .F. ) ;
#132 = CALENDAR_DATE ( 2020, 21, 10 ) ;
#133 = LOCAL_TIME ( 14, 24, 6.000000000000000000, #73 ) ;
#134 = ORGANIZATION ( 'UNSPECIFIED', 'UNSPECIFIED', '' ) ;
#135 = DIRECTION ( 'NONE',  ( 1.000000000000000000, 0.0000000000000000000, 0.0000000000000000000 ) ) ;
#136 = CARTESIAN_POINT ( 'NONE',  ( 0.0000000000000000000, 0.0000000000000000000, 2.299999999999999822 ) ) ;
#137 = DIRECTION ( 'NONE',  ( -0.0000000000000000000, -0.0000000000000000000, -1.000000000000000000 ) ) ;
#138 = MECHANICAL_CONTEXT ( 'NONE', #139, 'mechanical' ) ;
#139 = APPLICATION_CONTEXT ( 'configuration controlled 3d designs of mechanical parts and assemblies' ) ;
#140 = DESIGN_CONTEXT ( 'detailed design', #154, 'design' ) ;
#141 = LOCAL_TIME ( 14, 24, 6.000000000000000000, #142 ) ;
#142 = COORDINATED_UNIVERSAL_TIME_OFFSET ( 5, 0, .BEHIND. ) ;
#143 = ORIENTED_EDGE ( 'NONE', *, *, #111, .T. ) ;
#144 = CALENDAR_DATE ( 2020, 21, 10 ) ;
#145 = SHAPE_DEFINITION_REPRESENTATION ( #119, #146 ) ;
#146 = ADVANCED_BREP_SHAPE_REPRESENTATION ( 'Web Model 43369_15995', ( #60, #91 ), #62 ) ;
#147 = LINE ( 'NONE', #151, #113 ) ;
#148 = APPROVAL_DATE_TIME ( #57, #36 ) ;
#149 = DIRECTION ( 'NONE',  ( -0.0000000000000000000, -0.0000000000000000000, -1.000000000000000000 ) ) ;
#150 = AXIS2_PLACEMENT_3D ( 'NONE', #6, #122, #20 ) ;
#151 = CARTESIAN_POINT ( 'NONE',  ( 12.50000000000000000, 1.530808498934191521E-15, 2.299999999999999822 ) ) ;
#152 = ORIENTED_EDGE ( 'NONE', *, *, #83, .T. ) ;
#153 = PLANE ( 'NONE',  #3 ) ;
#154 = APPLICATION_CONTEXT ( 'configuration controlled 3d designs of mechanical parts and assemblies' ) ;
#155 = CALENDAR_DATE ( 2020, 21, 10 ) ;
#156 = PERSON_AND_ORGANIZATION_ROLE ( 'creator' ) ;
#157 = ORIENTED_EDGE ( 'NONE', *, *, #26, .T. ) ;
#158 = APPLICATION_PROTOCOL_DEFINITION ( 'international standard', 'config_control_design', 1994, #139 ) ;
#159 = CC_DESIGN_PERSON_AND_ORGANIZATION_ASSIGNMENT ( #175, #31, ( #81 ) ) ;
#160 = ORIENTED_EDGE ( 'NONE', *, *, #86, .F. ) ;
#161 = CARTESIAN_POINT ( 'NONE',  ( 12.50000000000000000, 1.530808498934191521E-15, 2.299999999999999822 ) ) ;
#162 = DATE_AND_TIME ( #132, #12 ) ;
#163 = DIRECTION ( 'NONE',  ( -0.0000000000000000000, -0.0000000000000000000, -1.000000000000000000 ) ) ;
#164 = PRODUCT_DEFINITION ( 'UNKNOWN', '', #81, #140 ) ;
#165 = ORIENTED_EDGE ( 'NONE', *, *, #86, .T. ) ;
#166 =( NAMED_UNIT ( * ) SI_UNIT ( $, .STERADIAN. ) SOLID_ANGLE_UNIT ( ) );
#167 = APPROVAL_STATUS ( 'not_yet_approved' ) ;
#168 = CC_DESIGN_PERSON_AND_ORGANIZATION_ASSIGNMENT ( #98, #126, ( #89 ) ) ;
#169 = DATE_TIME_ROLE ( 'classification_date' ) ;
#170 = ADVANCED_FACE ( 'NONE', ( #53 ), #153, .T. ) ;
#171 = CC_DESIGN_PERSON_AND_ORGANIZATION_ASSIGNMENT ( #172, #88, ( #99 ) ) ;
#172 = PERSON_AND_ORGANIZATION ( #10, #134 ) ;
#173 = APPROVAL ( #74, 'UNSPECIFIED' ) ;
#174 = DIRECTION ( 'NONE',  ( 0.0000000000000000000, 0.0000000000000000000, 1.000000000000000000 ) ) ;
#175 = PERSON_AND_ORGANIZATION ( #10, #134 ) ;
ENDSEC;
END-ISO-10303-21;
