ISO-10303-21;
HEADER;
FILE_DESCRIPTION (( 'STEP AP203' ),
    '1' );
FILE_NAME ('Web Model 63209_14832.step',
    '2020-10-07T17:39:46',
    ( '' ),
    ( '' ),
    'SwSTEP 2.0',
    'SolidWorks 2018',
    '' );
FILE_SCHEMA (( 'CONFIG_CONTROL_DESIGN' ));
ENDSEC;

DATA;
#1 = CYLINDRICAL_SURFACE ( 'NONE', #52, 20.00000000000000000 ) ;
#2 = DATE_AND_TIME ( #89, #156 ) ;
#3 = ORIENTED_EDGE ( 'NONE', *, *, #105, .T. ) ;
#4 = EDGE_CURVE ( 'NONE', #120, #9, #158, .T. ) ;
#5 = DATE_AND_TIME ( #155, #10 ) ;
#6 = CC_DESIGN_PERSON_AND_ORGANIZATION_ASSIGNMENT ( #72, #114, ( #126 ) ) ;
#7 = PLANE ( 'NONE',  #26 ) ;
#8 = CARTESIAN_POINT ( 'NONE',  ( 0.0000000000000000000, 0.0000000000000000000, 0.0000000000000000000 ) ) ;
#9 = VERTEX_POINT ( 'NONE', #50 ) ;
#10 = LOCAL_TIME ( 13, 39, 46.00000000000000000, #11 ) ;
#11 = COORDINATED_UNIVERSAL_TIME_OFFSET ( 5, 0, .BEHIND. ) ;
#12 = SECURITY_CLASSIFICATION ( '', '', #81 ) ;
#13 = APPROVAL_STATUS ( 'not_yet_approved' ) ;
#14 = PERSON_AND_ORGANIZATION_ROLE ( 'classification_officer' ) ;
#15 = APPROVAL_ROLE ( '' ) ;
#16 = AXIS2_PLACEMENT_3D ( 'NONE', #139, #116, #31 ) ;
#17 = FACE_OUTER_BOUND ( 'NONE', #78, .T. ) ;
#18 = CIRCLE ( 'NONE', #56, 20.00000000000000000 ) ;
#19 = CC_DESIGN_APPROVAL ( #115, ( #12 ) ) ;
#20 = CARTESIAN_POINT ( 'NONE',  ( 0.0000000000000000000, 0.0000000000000000000, 0.0000000000000000000 ) ) ;
#21 = COORDINATED_UNIVERSAL_TIME_OFFSET ( 5, 0, .BEHIND. ) ;
#22 = ORIENTED_EDGE ( 'NONE', *, *, #170, .F. ) ;
#23 = CARTESIAN_POINT ( 'NONE',  ( 0.0000000000000000000, 0.0000000000000000000, 3.000000000000000000 ) ) ;
#24 = CC_DESIGN_PERSON_AND_ORGANIZATION_ASSIGNMENT ( #59, #98, ( #83 ) ) ;
#25 = CARTESIAN_POINT ( 'NONE',  ( 0.0000000000000000000, 0.0000000000000000000, 3.000000000000000000 ) ) ;
#26 = AXIS2_PLACEMENT_3D ( 'NONE', #58, #147, #80 ) ;
#27 = EDGE_LOOP ( 'NONE', ( #134, #39, #3, #22 ) ) ;
#28 = APPLICATION_PROTOCOL_DEFINITION ( 'international standard', 'config_control_design', 1994, #173 ) ;
#29 = DATE_AND_TIME ( #69, #166 ) ;
#30 = PRODUCT_RELATED_PRODUCT_CATEGORY ( 'detail', '', ( #44 ) ) ;
#31 = DIRECTION ( 'NONE',  ( 1.000000000000000000, 0.0000000000000000000, 0.0000000000000000000 ) ) ;
#32 = DATE_TIME_ROLE ( 'creation_date' ) ;
#33 = APPROVAL_DATE_TIME ( #74, #88 ) ;
#34 = CC_DESIGN_PERSON_AND_ORGANIZATION_ASSIGNMENT ( #60, #63, ( #44 ) ) ;
#35 = CARTESIAN_POINT ( 'NONE',  ( 20.00000000000000000, 2.449293598294706513E-15, 0.0000000000000000000 ) ) ;
#36 = AXIS2_PLACEMENT_3D ( 'NONE', #8, #127, #159 ) ;
#37 = PERSON_AND_ORGANIZATION ( #129, #87 ) ;
#38 = APPROVAL_DATE_TIME ( #144, #91 ) ;
#39 = ORIENTED_EDGE ( 'NONE', *, *, #142, .T. ) ;
#40 = CC_DESIGN_DATE_AND_TIME_ASSIGNMENT ( #29, #65, ( #12 ) ) ;
#41 = DIRECTION ( 'NONE',  ( 1.000000000000000000, 0.0000000000000000000, 0.0000000000000000000 ) ) ;
#42 = DIRECTION ( 'NONE',  ( -0.0000000000000000000, -0.0000000000000000000, -1.000000000000000000 ) ) ;
#43 = APPROVAL_PERSON_ORGANIZATION ( #143, #88, #15 ) ;
#44 = PRODUCT ( 'Web Model 63209_14832', 'Web Model 63209_14832', '', ( #95 ) ) ;
#45 = ORIENTED_EDGE ( 'NONE', *, *, #113, .F. ) ;
#46 = CALENDAR_DATE ( 2020, 7, 10 ) ;
#47 =( LENGTH_UNIT ( ) NAMED_UNIT ( * ) SI_UNIT ( .MILLI., .METRE. ) );
#48 = CC_DESIGN_APPROVAL ( #91, ( #126 ) ) ;
#49 = ADVANCED_FACE ( 'NONE', ( #17 ), #7, .T. ) ;
#50 = CARTESIAN_POINT ( 'NONE',  ( -20.00000000000000000, 0.0000000000000000000, 3.000000000000000000 ) ) ;
#51 = PERSON_AND_ORGANIZATION_ROLE ( 'design_supplier' ) ;
#52 = AXIS2_PLACEMENT_3D ( 'NONE', #124, #42, #157 ) ;
#53 = LINE ( 'NONE', #167, #146 ) ;
#54 = LINE ( 'NONE', #161, #162 ) ;
#55 = DESIGN_CONTEXT ( 'detailed design', #173, 'design' ) ;
#56 = AXIS2_PLACEMENT_3D ( 'NONE', #25, #145, #70 ) ;
#57 = SHAPE_DEFINITION_REPRESENTATION ( #85, #137 ) ;
#58 = CARTESIAN_POINT ( 'NONE',  ( 0.0000000000000000000, 0.0000000000000000000, 3.000000000000000000 ) ) ;
#59 = PERSON_AND_ORGANIZATION ( #129, #87 ) ;
#60 = PERSON_AND_ORGANIZATION ( #129, #87 ) ;
#61 = AXIS2_PLACEMENT_3D ( 'NONE', #112, #94, #62 ) ;
#62 = DIRECTION ( 'NONE',  ( 1.000000000000000000, 0.0000000000000000000, -0.0000000000000000000 ) ) ;
#63 = PERSON_AND_ORGANIZATION_ROLE ( 'design_owner' ) ;
#64 = LOCAL_TIME ( 13, 39, 46.00000000000000000, #102 ) ;
#65 = DATE_TIME_ROLE ( 'classification_date' ) ;
#66 = APPROVAL_PERSON_ORGANIZATION ( #171, #91, #172 ) ;
#67 = DIRECTION ( 'NONE',  ( 0.0000000000000000000, 0.0000000000000000000, 1.000000000000000000 ) ) ;
#68 =( GEOMETRIC_REPRESENTATION_CONTEXT ( 3 ) GLOBAL_UNCERTAINTY_ASSIGNED_CONTEXT ( ( #71 ) ) GLOBAL_UNIT_ASSIGNED_CONTEXT ( ( #47, #125, #93 ) ) REPRESENTATION_CONTEXT ( 'NONE', 'WORKASPACE' ) );
#69 = CALENDAR_DATE ( 2020, 7, 10 ) ;
#70 = DIRECTION ( 'NONE',  ( 1.000000000000000000, 0.0000000000000000000, 0.0000000000000000000 ) ) ;
#71 = UNCERTAINTY_MEASURE_WITH_UNIT (LENGTH_MEASURE( 1.000000000000000082E-05 ), #47, 'distance_accuracy_value', 'NONE');
#72 = PERSON_AND_ORGANIZATION ( #129, #87 ) ;
#73 = DIRECTION ( 'NONE',  ( -0.0000000000000000000, -0.0000000000000000000, -1.000000000000000000 ) ) ;
#74 = DATE_AND_TIME ( #123, #64 ) ;
#75 = PLANE ( 'NONE',  #61 ) ;
#76 = EDGE_LOOP ( 'NONE', ( #136, #90 ) ) ;
#77 = AXIS2_PLACEMENT_3D ( 'NONE', #23, #73, #160 ) ;
#78 = EDGE_LOOP ( 'NONE', ( #154, #149 ) ) ;
#79 = APPLICATION_PROTOCOL_DEFINITION ( 'international standard', 'config_control_design', 1994, #151 ) ;
#80 = DIRECTION ( 'NONE',  ( 1.000000000000000000, 0.0000000000000000000, -0.0000000000000000000 ) ) ;
#81 = SECURITY_CLASSIFICATION_LEVEL ( 'unclassified' ) ;
#82 = VERTEX_POINT ( 'NONE', #119 ) ;
#83 = PRODUCT_DEFINITION_FORMATION_WITH_SPECIFIED_SOURCE ( 'ANY', '', #44, .NOT_KNOWN. ) ;
#84 = CARTESIAN_POINT ( 'NONE',  ( 0.0000000000000000000, 0.0000000000000000000, 3.000000000000000000 ) ) ;
#85 = PRODUCT_DEFINITION_SHAPE ( 'NONE', 'NONE',  #126 ) ;
#86 = AXIS2_PLACEMENT_3D ( 'NONE', #84, #92, #108 ) ;
#87 = ORGANIZATION ( 'UNSPECIFIED', 'UNSPECIFIED', '' ) ;
#88 = APPROVAL ( #97, 'UNSPECIFIED' ) ;
#89 = CALENDAR_DATE ( 2020, 7, 10 ) ;
#90 = ORIENTED_EDGE ( 'NONE', *, *, #105, .F. ) ;
#91 = APPROVAL ( #13, 'UNSPECIFIED' ) ;
#92 = DIRECTION ( 'NONE',  ( 0.0000000000000000000, 0.0000000000000000000, 1.000000000000000000 ) ) ;
#93 =( NAMED_UNIT ( * ) SI_UNIT ( $, .STERADIAN. ) SOLID_ANGLE_UNIT ( ) );
#94 = DIRECTION ( 'NONE',  ( 0.0000000000000000000, 0.0000000000000000000, 1.000000000000000000 ) ) ;
#95 = MECHANICAL_CONTEXT ( 'NONE', #151, 'mechanical' ) ;
#96 = CC_DESIGN_APPROVAL ( #88, ( #83 ) ) ;
#97 = APPROVAL_STATUS ( 'not_yet_approved' ) ;
#98 = PERSON_AND_ORGANIZATION_ROLE ( 'creator' ) ;
#99 = CIRCLE ( 'NONE', #36, 20.00000000000000000 ) ;
#100 = CC_DESIGN_PERSON_AND_ORGANIZATION_ASSIGNMENT ( #148, #51, ( #83 ) ) ;
#101 = PERSON_AND_ORGANIZATION ( #129, #87 ) ;
#102 = COORDINATED_UNIVERSAL_TIME_OFFSET ( 5, 0, .BEHIND. ) ;
#103 = AXIS2_PLACEMENT_3D ( 'NONE', #20, #67, #41 ) ;
#104 = VERTEX_POINT ( 'NONE', #35 ) ;
#105 = EDGE_CURVE ( 'NONE', #104, #82, #118, .T. ) ;
#106 = APPROVAL_STATUS ( 'not_yet_approved' ) ;
#107 = CYLINDRICAL_SURFACE ( 'NONE', #77, 20.00000000000000000 ) ;
#108 = DIRECTION ( 'NONE',  ( 1.000000000000000000, 0.0000000000000000000, 0.0000000000000000000 ) ) ;
#109 = APPROVAL_PERSON_ORGANIZATION ( #101, #115, #164 ) ;
#110 = DIRECTION ( 'NONE',  ( -0.0000000000000000000, -0.0000000000000000000, -1.000000000000000000 ) ) ;
#111 = CLOSED_SHELL ( 'NONE', ( #153, #128, #49, #152 ) ) ;
#112 = CARTESIAN_POINT ( 'NONE',  ( 0.0000000000000000000, 0.0000000000000000000, 0.0000000000000000000 ) ) ;
#113 = EDGE_CURVE ( 'NONE', #9, #120, #18, .T. ) ;
#114 = PERSON_AND_ORGANIZATION_ROLE ( 'creator' ) ;
#115 = APPROVAL ( #106, 'UNSPECIFIED' ) ;
#116 = DIRECTION ( 'NONE',  ( 0.0000000000000000000, 0.0000000000000000000, 1.000000000000000000 ) ) ;
#117 = FACE_OUTER_BOUND ( 'NONE', #150, .T. ) ;
#118 = CIRCLE ( 'NONE', #103, 20.00000000000000000 ) ;
#119 = CARTESIAN_POINT ( 'NONE',  ( -20.00000000000000000, 0.0000000000000000000, 0.0000000000000000000 ) ) ;
#120 = VERTEX_POINT ( 'NONE', #165 ) ;
#121 = ORIENTED_EDGE ( 'NONE', *, *, #122, .T. ) ;
#122 = EDGE_CURVE ( 'NONE', #82, #104, #99, .T. ) ;
#123 = CALENDAR_DATE ( 2020, 7, 10 ) ;
#124 = CARTESIAN_POINT ( 'NONE',  ( 0.0000000000000000000, 0.0000000000000000000, 3.000000000000000000 ) ) ;
#125 =( NAMED_UNIT ( * ) PLANE_ANGLE_UNIT ( ) SI_UNIT ( $, .RADIAN. ) );
#126 = PRODUCT_DEFINITION ( 'UNKNOWN', '', #83, #55 ) ;
#127 = DIRECTION ( 'NONE',  ( 0.0000000000000000000, 0.0000000000000000000, 1.000000000000000000 ) ) ;
#128 = ADVANCED_FACE ( 'NONE', ( #117 ), #1, .T. ) ;
#129 = PERSON ( 'UNSPECIFIED', 'UNSPECIFIED', 'UNSPECIFIED', ('UNSPECIFIED'), ('UNSPECIFIED'), ('UNSPECIFIED') ) ;
#130 = APPROVAL_DATE_TIME ( #5, #115 ) ;
#131 = COORDINATED_UNIVERSAL_TIME_OFFSET ( 5, 0, .BEHIND. ) ;
#132 = CC_DESIGN_PERSON_AND_ORGANIZATION_ASSIGNMENT ( #37, #14, ( #12 ) ) ;
#133 = LOCAL_TIME ( 13, 39, 46.00000000000000000, #21 ) ;
#134 = ORIENTED_EDGE ( 'NONE', *, *, #4, .F. ) ;
#135 = CC_DESIGN_DATE_AND_TIME_ASSIGNMENT ( #2, #32, ( #126 ) ) ;
#136 = ORIENTED_EDGE ( 'NONE', *, *, #122, .F. ) ;
#137 = ADVANCED_BREP_SHAPE_REPRESENTATION ( 'Web Model 63209_14832', ( #163, #16 ), #68 ) ;
#138 = ORIENTED_EDGE ( 'NONE', *, *, #170, .T. ) ;
#139 = CARTESIAN_POINT ( 'NONE',  ( 0.0000000000000000000, 0.0000000000000000000, 0.0000000000000000000 ) ) ;
#140 = FACE_OUTER_BOUND ( 'NONE', #27, .T. ) ;
#141 = COORDINATED_UNIVERSAL_TIME_OFFSET ( 5, 0, .BEHIND. ) ;
#142 = EDGE_CURVE ( 'NONE', #120, #104, #53, .T. ) ;
#143 = PERSON_AND_ORGANIZATION ( #129, #87 ) ;
#144 = DATE_AND_TIME ( #46, #133 ) ;
#145 = DIRECTION ( 'NONE',  ( 0.0000000000000000000, 0.0000000000000000000, 1.000000000000000000 ) ) ;
#146 = VECTOR ( 'NONE', #169, 1000.000000000000000 ) ;
#147 = DIRECTION ( 'NONE',  ( 0.0000000000000000000, 0.0000000000000000000, 1.000000000000000000 ) ) ;
#148 = PERSON_AND_ORGANIZATION ( #129, #87 ) ;
#149 = ORIENTED_EDGE ( 'NONE', *, *, #4, .T. ) ;
#150 = EDGE_LOOP ( 'NONE', ( #168, #45, #138, #121 ) ) ;
#151 = APPLICATION_CONTEXT ( 'configuration controlled 3d designs of mechanical parts and assemblies' ) ;
#152 = ADVANCED_FACE ( 'NONE', ( #175 ), #75, .F. ) ;
#153 = ADVANCED_FACE ( 'NONE', ( #140 ), #107, .T. ) ;
#154 = ORIENTED_EDGE ( 'NONE', *, *, #113, .T. ) ;
#155 = CALENDAR_DATE ( 2020, 7, 10 ) ;
#156 = LOCAL_TIME ( 13, 39, 46.00000000000000000, #131 ) ;
#157 = DIRECTION ( 'NONE',  ( -1.000000000000000000, 0.0000000000000000000, 0.0000000000000000000 ) ) ;
#158 = CIRCLE ( 'NONE', #86, 20.00000000000000000 ) ;
#159 = DIRECTION ( 'NONE',  ( 1.000000000000000000, 0.0000000000000000000, 0.0000000000000000000 ) ) ;
#160 = DIRECTION ( 'NONE',  ( -1.000000000000000000, 0.0000000000000000000, 0.0000000000000000000 ) ) ;
#161 = CARTESIAN_POINT ( 'NONE',  ( -20.00000000000000000, 0.0000000000000000000, 3.000000000000000000 ) ) ;
#162 = VECTOR ( 'NONE', #110, 1000.000000000000000 ) ;
#163 = MANIFOLD_SOLID_BREP ( 'Extrude1', #111 ) ;
#164 = APPROVAL_ROLE ( '' ) ;
#165 = CARTESIAN_POINT ( 'NONE',  ( 20.00000000000000000, 2.449293598294706513E-15, 3.000000000000000000 ) ) ;
#166 = LOCAL_TIME ( 13, 39, 46.00000000000000000, #141 ) ;
#167 = CARTESIAN_POINT ( 'NONE',  ( 20.00000000000000000, 2.449293598294706513E-15, 3.000000000000000000 ) ) ;
#168 = ORIENTED_EDGE ( 'NONE', *, *, #142, .F. ) ;
#169 = DIRECTION ( 'NONE',  ( -0.0000000000000000000, -0.0000000000000000000, -1.000000000000000000 ) ) ;
#170 = EDGE_CURVE ( 'NONE', #9, #82, #54, .T. ) ;
#171 = PERSON_AND_ORGANIZATION ( #129, #87 ) ;
#172 = APPROVAL_ROLE ( '' ) ;
#173 = APPLICATION_CONTEXT ( 'configuration controlled 3d designs of mechanical parts and assemblies' ) ;
#174 = CC_DESIGN_SECURITY_CLASSIFICATION ( #12, ( #83 ) ) ;
#175 = FACE_OUTER_BOUND ( 'NONE', #76, .T. ) ;
ENDSEC;
END-ISO-10303-21;
