ISO-10303-21;
HEADER;
FILE_DESCRIPTION (( 'STEP AP203' ),
    '1' );
FILE_NAME ('20230-E0W.STEP',
    '2009-09-14T20:13:03',
    ( 'Admin' ),
    ( 'Thorlabs, Inc.' ),
    'SwSTEP 2.0',
    'SolidWorks 2007',
    '' );
FILE_SCHEMA (( 'CONFIG_CONTROL_DESIGN' ));
ENDSEC;

DATA;
#1 =( NAMED_UNIT ( * ) SI_UNIT ( $, .STERADIAN. ) SOLID_ANGLE_UNIT ( ) );
#2 =( GEOMETRIC_REPRESENTATION_CONTEXT ( 3 ) GLOBAL_UNCERTAINTY_ASSIGNED_CONTEXT ( ( #3 ) ) GLOBAL_UNIT_ASSIGNED_CONTEXT ( ( #31, #77, #1 ) ) REPRESENTATION_CONTEXT ( 'NONE', 'WORKASPACE' ) );
#3 = UNCERTAINTY_MEASURE_WITH_UNIT (LENGTH_MEASURE( 1.000000000000000100E-005 ), #31, 'distance_accuracy_value', 'NONE');
#4 = ADVANCED_BREP_SHAPE_REPRESENTATION ( '20230-E0W', ( #125, #227 ), #2 ) ;
#5 = ORIENTED_EDGE ( 'NONE', *, *, #34, .F. ) ;
#6 = ORIENTED_EDGE ( 'NONE', *, *, #61, .F. ) ;
#7 = ORIENTED_EDGE ( 'NONE', *, *, #62, .T. ) ;
#8 = ORIENTED_EDGE ( 'NONE', *, *, #39, .F. ) ;
#9 = VERTEX_POINT ( 'NONE', #30 ) ;
#10 = VERTEX_POINT ( 'NONE', #29 ) ;
#11 = EDGE_LOOP ( 'NONE', ( #12, #15, #53 ) ) ;
#12 = ORIENTED_EDGE ( 'NONE', *, *, #13, .F. ) ;
#13 = EDGE_CURVE ( 'NONE', #14, #10, #76, .T. ) ;
#14 = VERTEX_POINT ( 'NONE', #71 ) ;
#15 = ORIENTED_EDGE ( 'NONE', *, *, #16, .T. ) ;
#16 = EDGE_CURVE ( 'NONE', #14, #35, #69, .T. ) ;
#17 = ORIENTED_EDGE ( 'NONE', *, *, #37, .T. ) ;
#18 = CLOSED_SHELL ( 'NONE', ( #57, #38, #124, #64, #63, #55 ) ) ;
#19 = EDGE_LOOP ( 'NONE', ( #20, #23, #123 ) ) ;
#20 = ORIENTED_EDGE ( 'NONE', *, *, #22, .F. ) ;
#21 = VERTEX_POINT ( 'NONE', #70 ) ;
#22 = EDGE_CURVE ( 'NONE', #21, #59, #121, .T. ) ;
#23 = ORIENTED_EDGE ( 'NONE', *, *, #24, .T. ) ;
#24 = EDGE_CURVE ( 'NONE', #21, #9, #115, .T. ) ;
#25 = ORIENTED_EDGE ( 'NONE', *, *, #16, .F. ) ;
#26 = ORIENTED_EDGE ( 'NONE', *, *, #24, .F. ) ;
#27 = ORIENTED_EDGE ( 'NONE', *, *, #22, .T. ) ;
#28 = EDGE_LOOP ( 'NONE', ( #26, #27, #40 ) ) ;
#29 = CARTESIAN_POINT ( 'NONE',  ( 0.0000000000000000000, 12.69999999999999200, 3.791301066182890100 ) ) ;
#30 = CARTESIAN_POINT ( 'NONE',  ( 1.555250069354417700E-015, 12.69999999999999800, -0.5848382609307255500 ) ) ;
#31 =( LENGTH_UNIT ( ) NAMED_UNIT ( * ) SI_UNIT ( .MILLI., .METRE. ) );
#32 = ORIENTED_EDGE ( 'NONE', *, *, #33, .T. ) ;
#33 = EDGE_CURVE ( 'NONE', #59, #9, #110, .T. ) ;
#34 = EDGE_CURVE ( 'NONE', #35, #10, #106, .T. ) ;
#35 = VERTEX_POINT ( 'NONE', #48 ) ;
#36 = ORIENTED_EDGE ( 'NONE', *, *, #37, .F. ) ;
#37 = EDGE_CURVE ( 'NONE', #59, #35, #47, .T. ) ;
#38 = ADVANCED_FACE ( 'NONE', ( #43 ), #41, .T. ) ;
#39 = EDGE_CURVE ( 'NONE', #10, #35, #142, .T. ) ;
#40 = ORIENTED_EDGE ( 'NONE', *, *, #62, .F. ) ;
#41 = SPHERICAL_SURFACE ( 'NONE', #42, 57.69400000000000300 ) ;
#42 = AXIS2_PLACEMENT_3D ( 'NONE', #146, #145, #144 ) ;
#43 = FACE_OUTER_BOUND ( 'NONE', #19, .T. ) ;
#44 = DIRECTION ( 'NONE',  ( 0.0000000000000000000, -1.836909530733566100E-016, 1.000000000000000000 ) ) ;
#45 = VECTOR ( 'NONE', #44, 1000.000000000000000 ) ;
#46 = CARTESIAN_POINT ( 'NONE',  ( 0.0000000000000000000, -12.69999999999999900, 1.999999999999997800 ) ) ;
#47 = LINE ( 'NONE', #46, #45 ) ;
#48 = CARTESIAN_POINT ( 'NONE',  ( -1.555250069354418500E-015, -12.69999999999998500, 3.791301066182887900 ) ) ;
#49 = DIRECTION ( 'NONE',  ( 0.0000000000000000000, -1.000000000000000000, -1.707404996040164300E-016 ) ) ;
#50 = DIRECTION ( 'NONE',  ( 0.0000000000000000000, -1.836909530733566100E-016, 1.000000000000000000 ) ) ;
#51 = AXIS2_PLACEMENT_3D ( 'NONE', #111, #50, #49 ) ;
#52 = ORIENTED_EDGE ( 'NONE', *, *, #39, .T. ) ;
#53 = ORIENTED_EDGE ( 'NONE', *, *, #34, .T. ) ;
#54 = EDGE_LOOP ( 'NONE', ( #25, #105, #52 ) ) ;
#55 = ADVANCED_FACE ( 'NONE', ( #143 ), #135, .T. ) ;
#56 = EDGE_LOOP ( 'NONE', ( #6, #7, #17, #8 ) ) ;
#57 = ADVANCED_FACE ( 'NONE', ( #136 ), #131, .T. ) ;
#58 = EDGE_LOOP ( 'NONE', ( #32, #60, #5, #36 ) ) ;
#59 = VERTEX_POINT ( 'NONE', #130 ) ;
#60 = ORIENTED_EDGE ( 'NONE', *, *, #61, .T. ) ;
#61 = EDGE_CURVE ( 'NONE', #9, #10, #104, .T. ) ;
#62 = EDGE_CURVE ( 'NONE', #9, #59, #99, .T. ) ;
#63 = ADVANCED_FACE ( 'NONE', ( #100 ), #92, .T. ) ;
#64 = ADVANCED_FACE ( 'NONE', ( #88 ), #87, .F. ) ;
#65 = DIRECTION ( 'NONE',  ( -1.224606353822377500E-016, -1.000000000000000000, 0.0000000000000000000 ) ) ;
#66 = DIRECTION ( 'NONE',  ( -1.000000000000000000, 1.224606353822377300E-016, 2.249491082733206400E-032 ) ) ;
#67 = CARTESIAN_POINT ( 'NONE',  ( 0.0000000000000000000, 0.0000000000000000000, 47.91599999999999000 ) ) ;
#68 = AXIS2_PLACEMENT_3D ( 'NONE', #67, #66, #65 ) ;
#69 = CIRCLE ( 'NONE', #68, 45.91599999999999000 ) ;
#70 = CARTESIAN_POINT ( 'NONE',  ( 0.0000000000000000000, 7.065243897742824900E-015, -2.000000000000001800 ) ) ;
#71 = CARTESIAN_POINT ( 'NONE',  ( 0.0000000000000000000, 1.124580506842165400E-014, 1.999999999999994900 ) ) ;
#72 = DIRECTION ( 'NONE',  ( 0.0000000000000000000, 0.0000000000000000000, -1.000000000000000000 ) ) ;
#73 = DIRECTION ( 'NONE',  ( 1.000000000000000000, 0.0000000000000000000, 0.0000000000000000000 ) ) ;
#74 = CARTESIAN_POINT ( 'NONE',  ( 0.0000000000000000000, 0.0000000000000000000, 47.91599999999999000 ) ) ;
#75 = AXIS2_PLACEMENT_3D ( 'NONE', #74, #73, #72 ) ;
#76 = CIRCLE ( 'NONE', #75, 45.91599999999999000 ) ;
#77 =( NAMED_UNIT ( * ) PLANE_ANGLE_UNIT ( ) SI_UNIT ( $, .RADIAN. ) );
#78 = DIRECTION ( 'NONE',  ( 0.0000000000000000000, 1.000000000000000000, 1.511214806147580300E-016 ) ) ;
#79 = DIRECTION ( 'NONE',  ( -1.000000000000000000, 0.0000000000000000000, 0.0000000000000000000 ) ) ;
#80 = CARTESIAN_POINT ( 'NONE',  ( 0.0000000000000000000, 0.0000000000000000000, 47.91599999999999000 ) ) ;
#81 = AXIS2_PLACEMENT_3D ( 'NONE', #80, #79, #78 ) ;
#82 = SPHERICAL_SURFACE ( 'NONE', #81, 45.91599999999999000 ) ;
#83 = FACE_OUTER_BOUND ( 'NONE', #11, .T. ) ;
#84 = DIRECTION ( 'NONE',  ( 0.0000000000000000000, 1.000000000000000000, 1.511214806147580300E-016 ) ) ;
#85 = DIRECTION ( 'NONE',  ( -1.000000000000000000, 0.0000000000000000000, 0.0000000000000000000 ) ) ;
#86 = AXIS2_PLACEMENT_3D ( 'NONE', #93, #85, #84 ) ;
#87 = SPHERICAL_SURFACE ( 'NONE', #86, 45.91599999999999000 ) ;
#88 = FACE_OUTER_BOUND ( 'NONE', #54, .T. ) ;
#89 = DIRECTION ( 'NONE',  ( 0.0000000000000000000, -1.000000000000000000, -2.405412661249775600E-016 ) ) ;
#90 = DIRECTION ( 'NONE',  ( 1.000000000000000000, 0.0000000000000000000, 0.0000000000000000000 ) ) ;
#91 = AXIS2_PLACEMENT_3D ( 'NONE', #94, #90, #89 ) ;
#92 = SPHERICAL_SURFACE ( 'NONE', #91, 57.69400000000000300 ) ;
#93 = CARTESIAN_POINT ( 'NONE',  ( 0.0000000000000000000, 0.0000000000000000000, 47.91599999999999000 ) ) ;
#94 = CARTESIAN_POINT ( 'NONE',  ( 0.0000000000000000000, 0.0000000000000000000, 55.69400000000000300 ) ) ;
#95 = DIRECTION ( 'NONE',  ( 0.0000000000000000000, -1.000000000000000000, -1.878145495644181300E-016 ) ) ;
#96 = DIRECTION ( 'NONE',  ( 0.0000000000000000000, -1.836909530733566100E-016, 1.000000000000000000 ) ) ;
#97 = CARTESIAN_POINT ( 'NONE',  ( 0.0000000000000000000, 4.748114036908429900E-016, -0.5848382609307278800 ) ) ;
#98 = AXIS2_PLACEMENT_3D ( 'NONE', #97, #96, #95 ) ;
#99 = CIRCLE ( 'NONE', #98, 12.69999999999999800 ) ;
#100 = FACE_OUTER_BOUND ( 'NONE', #28, .T. ) ;
#101 = DIRECTION ( 'NONE',  ( 0.0000000000000000000, -1.836909530733566100E-016, 1.000000000000000000 ) ) ;
#102 = VECTOR ( 'NONE', #101, 1000.000000000000000 ) ;
#103 = CARTESIAN_POINT ( 'NONE',  ( 1.555250069354419100E-015, 12.69999999999999900, 2.000000000000002200 ) ) ;
#104 = LINE ( 'NONE', #103, #102 ) ;
#105 = ORIENTED_EDGE ( 'NONE', *, *, #13, .T. ) ;
#106 = CIRCLE ( 'NONE', #51, 12.70000000000000100 ) ;
#107 = DIRECTION ( 'NONE',  ( 0.0000000000000000000, -1.000000000000000000, -1.878145495644181300E-016 ) ) ;
#108 = DIRECTION ( 'NONE',  ( 0.0000000000000000000, -1.836909530733566100E-016, 1.000000000000000000 ) ) ;
#109 = AXIS2_PLACEMENT_3D ( 'NONE', #116, #108, #107 ) ;
#110 = CIRCLE ( 'NONE', #109, 12.69999999999999800 ) ;
#111 = CARTESIAN_POINT ( 'NONE',  ( 0.0000000000000000000, -3.290458000884546900E-016, 3.791301066182888800 ) ) ;
#112 = DIRECTION ( 'NONE',  ( 1.224606353822377300E-016, 1.000000000000000000, 0.0000000000000000000 ) ) ;
#113 = DIRECTION ( 'NONE',  ( 1.000000000000000000, -1.224606353822377300E-016, -2.249491082733206400E-032 ) ) ;
#114 = AXIS2_PLACEMENT_3D ( 'NONE', #122, #113, #112 ) ;
#115 = CIRCLE ( 'NONE', #114, 57.69400000000000300 ) ;
#116 = CARTESIAN_POINT ( 'NONE',  ( 0.0000000000000000000, 4.748114036908429900E-016, -0.5848382609307278800 ) ) ;
#117 = DIRECTION ( 'NONE',  ( 0.0000000000000000000, 0.0000000000000000000, 1.000000000000000000 ) ) ;
#118 = DIRECTION ( 'NONE',  ( -1.000000000000000000, 0.0000000000000000000, 0.0000000000000000000 ) ) ;
#119 = CARTESIAN_POINT ( 'NONE',  ( 0.0000000000000000000, 0.0000000000000000000, 55.69400000000000300 ) ) ;
#120 = AXIS2_PLACEMENT_3D ( 'NONE', #119, #118, #117 ) ;
#121 = CIRCLE ( 'NONE', #120, 57.69400000000000300 ) ;
#122 = CARTESIAN_POINT ( 'NONE',  ( 0.0000000000000000000, 0.0000000000000000000, 55.69400000000000300 ) ) ;
#123 = ORIENTED_EDGE ( 'NONE', *, *, #33, .F. ) ;
#124 = ADVANCED_FACE ( 'NONE', ( #83 ), #82, .F. ) ;
#125 = MANIFOLD_SOLID_BREP ( 'NONE', #18 ) ;
#126 = DIRECTION ( 'NONE',  ( 0.0000000000000000000, -1.000000000000000000, -1.707404996040164500E-016 ) ) ;
#127 = DIRECTION ( 'NONE',  ( 0.0000000000000000000, -1.836909530733566100E-016, 1.000000000000000000 ) ) ;
#128 = CARTESIAN_POINT ( 'NONE',  ( 0.0000000000000000000, 0.0000000000000000000, 2.000000000000000000 ) ) ;
#129 = AXIS2_PLACEMENT_3D ( 'NONE', #128, #127, #126 ) ;
#130 = CARTESIAN_POINT ( 'NONE',  ( 0.0000000000000000000, -12.69999999999998700, -0.5848382609307279900 ) ) ;
#131 = CYLINDRICAL_SURFACE ( 'NONE', #129, 12.69999999999999900 ) ;
#132 = DIRECTION ( 'NONE',  ( 0.0000000000000000000, -1.000000000000000000, -1.707404996040164500E-016 ) ) ;
#133 = DIRECTION ( 'NONE',  ( 0.0000000000000000000, -1.836909530733566100E-016, 1.000000000000000000 ) ) ;
#134 = AXIS2_PLACEMENT_3D ( 'NONE', #137, #133, #132 ) ;
#135 = CYLINDRICAL_SURFACE ( 'NONE', #134, 12.69999999999999900 ) ;
#136 = FACE_OUTER_BOUND ( 'NONE', #58, .T. ) ;
#137 = CARTESIAN_POINT ( 'NONE',  ( 0.0000000000000000000, 0.0000000000000000000, 2.000000000000000000 ) ) ;
#138 = DIRECTION ( 'NONE',  ( 0.0000000000000000000, -1.000000000000000000, -1.707404996040164300E-016 ) ) ;
#139 = DIRECTION ( 'NONE',  ( 0.0000000000000000000, -1.836909530733566100E-016, 1.000000000000000000 ) ) ;
#140 = CARTESIAN_POINT ( 'NONE',  ( 0.0000000000000000000, -3.290458000884546900E-016, 3.791301066182888800 ) ) ;
#141 = AXIS2_PLACEMENT_3D ( 'NONE', #140, #139, #138 ) ;
#142 = CIRCLE ( 'NONE', #141, 12.70000000000000100 ) ;
#143 = FACE_OUTER_BOUND ( 'NONE', #56, .T. ) ;
#144 = DIRECTION ( 'NONE',  ( 0.0000000000000000000, -1.000000000000000000, -2.405412661249775600E-016 ) ) ;
#145 = DIRECTION ( 'NONE',  ( 1.000000000000000000, 0.0000000000000000000, 0.0000000000000000000 ) ) ;
#146 = CARTESIAN_POINT ( 'NONE',  ( 0.0000000000000000000, 0.0000000000000000000, 55.69400000000000300 ) ) ;
#147 = APPROVAL_PERSON_ORGANIZATION ( #151, #149, #148 ) ;
#148 = APPROVAL_ROLE ( '' ) ;
#149 = APPROVAL ( #150, 'UNSPECIFIED' ) ;
#150 = APPROVAL_STATUS ( 'not_yet_approved' ) ;
#151 = PERSON_AND_ORGANIZATION ( #201, #200 ) ;
#152 = PRODUCT_DEFINITION ( 'UNKNOWN', '', #189, #153 ) ;
#153 = DESIGN_CONTEXT ( 'detailed design', #222, 'design' ) ;
#154 = CARTESIAN_POINT ( 'NONE',  ( 0.0000000000000000000, 0.0000000000000000000, 0.0000000000000000000 ) ) ;
#155 = SHAPE_DEFINITION_REPRESENTATION ( #156, #4 ) ;
#156 = PRODUCT_DEFINITION_SHAPE ( 'NONE', 'NONE',  #152 ) ;
#157 = PRODUCT_RELATED_PRODUCT_CATEGORY ( 'detail', '', ( #225 ) ) ;
#158 = CC_DESIGN_PERSON_AND_ORGANIZATION_ASSIGNMENT ( #160, #159, ( #161 ) ) ;
#159 = PERSON_AND_ORGANIZATION_ROLE ( 'classification_officer' ) ;
#160 = PERSON_AND_ORGANIZATION ( #201, #200 ) ;
#161 = SECURITY_CLASSIFICATION ( '', '', #162 ) ;
#162 = SECURITY_CLASSIFICATION_LEVEL ( 'unclassified' ) ;
#163 = CC_DESIGN_PERSON_AND_ORGANIZATION_ASSIGNMENT ( #165, #164, ( #189 ) ) ;
#164 = PERSON_AND_ORGANIZATION_ROLE ( 'design_supplier' ) ;
#165 = PERSON_AND_ORGANIZATION ( #201, #200 ) ;
#166 = CC_DESIGN_SECURITY_CLASSIFICATION ( #161, ( #189 ) ) ;
#167 = CC_DESIGN_APPROVAL ( #205, ( #161 ) ) ;
#168 = APPROVAL_DATE_TIME ( #169, #205 ) ;
#169 = DATE_AND_TIME ( #170, #171 ) ;
#170 = CALENDAR_DATE ( 2009, 14, 9 ) ;
#171 = LOCAL_TIME ( 16, 13, 3.000000000000000000, #172 ) ;
#172 = COORDINATED_UNIVERSAL_TIME_OFFSET ( 5, 0, .BEHIND. ) ;
#173 = APPROVAL_PERSON_ORGANIZATION ( #207, #205, #174 ) ;
#174 = APPROVAL_ROLE ( '' ) ;
#175 = CC_DESIGN_PERSON_AND_ORGANIZATION_ASSIGNMENT ( #177, #176, ( #189 ) ) ;
#176 = PERSON_AND_ORGANIZATION_ROLE ( 'creator' ) ;
#177 = PERSON_AND_ORGANIZATION ( #201, #200 ) ;
#178 = CC_DESIGN_APPROVAL ( #186, ( #189 ) ) ;
#179 = APPROVAL_DATE_TIME ( #180, #186 ) ;
#180 = DATE_AND_TIME ( #181, #182 ) ;
#181 = CALENDAR_DATE ( 2009, 14, 9 ) ;
#182 = LOCAL_TIME ( 16, 13, 3.000000000000000000, #183 ) ;
#183 = COORDINATED_UNIVERSAL_TIME_OFFSET ( 5, 0, .BEHIND. ) ;
#184 = APPROVAL_PERSON_ORGANIZATION ( #188, #186, #185 ) ;
#185 = APPROVAL_ROLE ( '' ) ;
#186 = APPROVAL ( #187, 'UNSPECIFIED' ) ;
#187 = APPROVAL_STATUS ( 'not_yet_approved' ) ;
#188 = PERSON_AND_ORGANIZATION ( #201, #200 ) ;
#189 = PRODUCT_DEFINITION_FORMATION_WITH_SPECIFIED_SOURCE ( 'ANY', '', #225, .NOT_KNOWN. ) ;
#190 = CC_DESIGN_DATE_AND_TIME_ASSIGNMENT ( #193, #192, ( #152 ) ) ;
#191 = DIRECTION ( 'NONE',  ( 0.0000000000000000000, 0.0000000000000000000, 1.000000000000000000 ) ) ;
#192 = DATE_TIME_ROLE ( 'creation_date' ) ;
#193 = DATE_AND_TIME ( #194, #195 ) ;
#194 = CALENDAR_DATE ( 2009, 14, 9 ) ;
#195 = LOCAL_TIME ( 16, 13, 3.000000000000000000, #196 ) ;
#196 = COORDINATED_UNIVERSAL_TIME_OFFSET ( 5, 0, .BEHIND. ) ;
#197 = CC_DESIGN_PERSON_AND_ORGANIZATION_ASSIGNMENT ( #199, #198, ( #152 ) ) ;
#198 = PERSON_AND_ORGANIZATION_ROLE ( 'creator' ) ;
#199 = PERSON_AND_ORGANIZATION ( #201, #200 ) ;
#200 = ORGANIZATION ( 'UNSPECIFIED', 'UNSPECIFIED', '' ) ;
#201 = PERSON ( 'UNSPECIFIED', 'UNSPECIFIED', 'UNSPECIFIED', ('UNSPECIFIED'), ('UNSPECIFIED'), ('UNSPECIFIED') ) ;
#202 = MECHANICAL_CONTEXT ( 'NONE', #204, 'mechanical' ) ;
#203 = APPLICATION_PROTOCOL_DEFINITION ( 'international standard', 'config_control_design', 1994, #204 ) ;
#204 = APPLICATION_CONTEXT ( 'configuration controlled 3d designs of mechanical parts and assemblies' ) ;
#205 = APPROVAL ( #206, 'UNSPECIFIED' ) ;
#206 = APPROVAL_STATUS ( 'not_yet_approved' ) ;
#207 = PERSON_AND_ORGANIZATION ( #201, #200 ) ;
#208 = CC_DESIGN_DATE_AND_TIME_ASSIGNMENT ( #210, #209, ( #161 ) ) ;
#209 = DATE_TIME_ROLE ( 'classification_date' ) ;
#210 = DATE_AND_TIME ( #211, #212 ) ;
#211 = CALENDAR_DATE ( 2009, 14, 9 ) ;
#212 = LOCAL_TIME ( 16, 13, 3.000000000000000000, #213 ) ;
#213 = COORDINATED_UNIVERSAL_TIME_OFFSET ( 5, 0, .BEHIND. ) ;
#214 = CC_DESIGN_APPROVAL ( #149, ( #152 ) ) ;
#215 = APPROVAL_DATE_TIME ( #216, #149 ) ;
#216 = DATE_AND_TIME ( #217, #218 ) ;
#217 = CALENDAR_DATE ( 2009, 14, 9 ) ;
#218 = LOCAL_TIME ( 16, 13, 3.000000000000000000, #219 ) ;
#219 = COORDINATED_UNIVERSAL_TIME_OFFSET ( 5, 0, .BEHIND. ) ;
#220 = DIRECTION ( 'NONE',  ( 1.000000000000000000, 0.0000000000000000000, 0.0000000000000000000 ) ) ;
#221 = APPLICATION_PROTOCOL_DEFINITION ( 'international standard', 'config_control_design', 1994, #222 ) ;
#222 = APPLICATION_CONTEXT ( 'configuration controlled 3d designs of mechanical parts and assemblies' ) ;
#223 = CC_DESIGN_PERSON_AND_ORGANIZATION_ASSIGNMENT ( #226, #224, ( #225 ) ) ;
#224 = PERSON_AND_ORGANIZATION_ROLE ( 'design_owner' ) ;
#225 = PRODUCT ( '20230-E0W', '20230-E0W', '', ( #202 ) ) ;
#226 = PERSON_AND_ORGANIZATION ( #201, #200 ) ;
#227 = AXIS2_PLACEMENT_3D ( 'NONE', #154, #191, #220 ) ;
ENDSEC;
END-ISO-10303-21;
