ISO-10303-21;
HEADER;
FILE_DESCRIPTION (( 'STEP AP203' ),
    '1' );
FILE_NAME ('20183-E0W.STEP',
    '2018-06-01T18:10:07',
    ( 'admin' ),
    ( '' ),
    'SwSTEP 2.0',
    'SolidWorks 2016',
    '' );
FILE_SCHEMA (( 'CONFIG_CONTROL_DESIGN' ));
ENDSEC;

DATA;
#1 = PRODUCT ( '20183-E0W', '20183-E0W', '', ( #180 ) ) ;
#2 = CIRCLE ( 'NONE', #51, 0.2422900286534946100 ) ;
#3 = EDGE_CURVE ( 'NONE', #307, #284, #119, .T. ) ;
#4 = CARTESIAN_POINT ( 'NONE',  ( 0.0000000000000000000, 0.0000000000000000000, 0.0000000000000000000 ) ) ;
#5 = LINE ( 'NONE', #286, #19 ) ;
#6 = ORIENTED_EDGE ( 'NONE', *, *, #159, .F. ) ;
#7 = FACE_OUTER_BOUND ( 'NONE', #101, .T. ) ;
#8 = PRODUCT_DEFINITION ( 'UNKNOWN', '', #107, #100 ) ;
#9 = DIRECTION ( 'NONE',  ( 0.0000000000000000000, -1.000000000000000000, -1.761736755665221500E-016 ) ) ;
#10 = CARTESIAN_POINT ( 'NONE',  ( 0.0000000000000000000, -3.414809992080329000E-017, 1.243045993791513300 ) ) ;
#11 = DATE_AND_TIME ( #91, #120 ) ;
#12 = VERTEX_POINT ( 'NONE', #310 ) ;
#13 = ADVANCED_FACE ( 'NONE', ( #66 ), #16, .T. ) ;
#14 = AXIS2_PLACEMENT_3D ( 'NONE', #96, #125, #273 ) ;
#15 =( NAMED_UNIT ( * ) PLANE_ANGLE_UNIT ( ) SI_UNIT ( $, .RADIAN. ) );
#16 = CONICAL_SURFACE ( 'NONE', #209, 0.2499999999999999700, 0.6906804910315419400 ) ;
#17 = ORIENTED_EDGE ( 'NONE', *, *, #297, .F. ) ;
#18 = ORIENTED_EDGE ( 'NONE', *, *, #135, .F. ) ;
#19 = VECTOR ( 'NONE', #98, 39.37007874015748100 ) ;
#20 = CARTESIAN_POINT ( 'NONE',  ( 0.0000000000000000000, -4.207670011193372400E-017, 0.07668114938551640100 ) ) ;
#21 = DATE_AND_TIME ( #59, #82 ) ;
#22 = EDGE_CURVE ( 'NONE', #307, #12, #37, .T. ) ;
#23 = PERSON_AND_ORGANIZATION ( #295, #228 ) ;
#24 = EDGE_LOOP ( 'NONE', ( #6, #267, #290, #227 ) ) ;
#25 = APPROVAL ( #300, 'UNSPECIFIED' ) ;
#26 = PERSON_AND_ORGANIZATION ( #295, #228 ) ;
#27 = FACE_OUTER_BOUND ( 'NONE', #242, .T. ) ;
#28 = APPROVAL_PERSON_ORGANIZATION ( #30, #25, #153 ) ;
#29 = CARTESIAN_POINT ( 'NONE',  ( 0.0000000000000000000, -0.2422900286534940300, -0.06229597575490409400 ) ) ;
#30 = PERSON_AND_ORGANIZATION ( #295, #228 ) ;
#31 = AXIS2_PLACEMENT_3D ( 'NONE', #285, #184, #179 ) ;
#32 = ORIENTED_EDGE ( 'NONE', *, *, #229, .T. ) ;
#33 = CARTESIAN_POINT ( 'NONE',  ( 0.0000000000000000000, -4.309944907697932100E-017, 0.08224891931611914800 ) ) ;
#34 = ORIENTED_EDGE ( 'NONE', *, *, #148, .T. ) ;
#35 = ADVANCED_FACE ( 'NONE', ( #7 ), #329, .T. ) ;
#36 = EDGE_CURVE ( 'NONE', #284, #12, #234, .T. ) ;
#37 = CIRCLE ( 'NONE', #222, 0.6374015748031497400 ) ;
#38 = CIRCLE ( 'NONE', #204, 1.327637795275590700 ) ;
#39 = CC_DESIGN_APPROVAL ( #25, ( #8 ) ) ;
#40 = PERSON_AND_ORGANIZATION_ROLE ( 'classification_officer' ) ;
#41 = LINE ( 'NONE', #266, #171 ) ;
#42 = ORIENTED_EDGE ( 'NONE', *, *, #314, .F. ) ;
#43 = DIRECTION ( 'NONE',  ( 0.0000000000000000000, 1.000000000000000000, 2.142956733757636600E-016 ) ) ;
#44 = CARTESIAN_POINT ( 'NONE',  ( 0.0000000000000000000, -3.414809992080329000E-017, 0.6709200095395447800 ) ) ;
#45 = CARTESIAN_POINT ( 'NONE',  ( 0.0000000000000000000, -3.414809992080329000E-017, 0.6709200095395447800 ) ) ;
#46 = EDGE_LOOP ( 'NONE', ( #177, #277, #178, #306 ) ) ;
#47 = ORIENTED_EDGE ( 'NONE', *, *, #281, .F. ) ;
#48 = SPHERICAL_SURFACE ( 'NONE', #181, 1.327637795275590700 ) ;
#49 = UNCERTAINTY_MEASURE_WITH_UNIT (LENGTH_MEASURE( 1.000000000000000100E-005 ), #138, 'distance_accuracy_value', 'NONE');
#50 = CARTESIAN_POINT ( 'NONE',  ( 0.0000000000000000000, 1.219663927629536400E-016, 0.03351843473639508400 ) ) ;
#51 = AXIS2_PLACEMENT_3D ( 'NONE', #106, #97, #9 ) ;
#52 = ORIENTED_EDGE ( 'NONE', *, *, #3, .T. ) ;
#53 = FACE_OUTER_BOUND ( 'NONE', #105, .T. ) ;
#54 = APPROVAL_DATE_TIME ( #260, #25 ) ;
#55 = EDGE_LOOP ( 'NONE', ( #282, #52, #291 ) ) ;
#56 = EDGE_CURVE ( 'NONE', #247, #210, #77, .T. ) ;
#57 = LINE ( 'NONE', #160, #302 ) ;
#58 = EDGE_LOOP ( 'NONE', ( #280, #172, #92 ) ) ;
#59 = CALENDAR_DATE ( 2018, 1, 6 ) ;
#60 = ORIENTED_EDGE ( 'NONE', *, *, #297, .T. ) ;
#61 = APPLICATION_CONTEXT ( 'configuration controlled 3d designs of mechanical parts and assemblies' ) ;
#62 = ADVANCED_FACE ( 'NONE', ( #158 ), #124, .T. ) ;
#63 = APPROVAL_PERSON_ORGANIZATION ( #67, #226, #257 ) ;
#64 = CC_DESIGN_PERSON_AND_ORGANIZATION_ASSIGNMENT ( #72, #151, ( #8 ) ) ;
#65 = CALENDAR_DATE ( 2018, 1, 6 ) ;
#66 = FACE_OUTER_BOUND ( 'NONE', #152, .T. ) ;
#67 = PERSON_AND_ORGANIZATION ( #295, #228 ) ;
#68 = ADVANCED_FACE ( 'NONE', ( #196 ), #230, .T. ) ;
#69 = CARTESIAN_POINT ( 'NONE',  ( 0.0000000000000000000, 0.2444322300693972100, 0.08224891931611921800 ) ) ;
#70 = DIMENSIONAL_EXPONENTS ( 1.000000000000000000, 0.0000000000000000000, 0.0000000000000000000, 0.0000000000000000000, 0.0000000000000000000, 0.0000000000000000000, 0.0000000000000000000 ) ;
#71 = LINE ( 'NONE', #157, #316 ) ;
#72 = PERSON_AND_ORGANIZATION ( #295, #228 ) ;
#73 = LENGTH_MEASURE_WITH_UNIT ( LENGTH_MEASURE( 0.02539999999999999900 ), #233 );
#74 = DIRECTION ( 'NONE',  ( 0.0000000000000000000, -1.000000000000000000, -1.707404996040164800E-016 ) ) ;
#75 = AXIS2_PLACEMENT_3D ( 'NONE', #102, #122, #265 ) ;
#76 = DIRECTION ( 'NONE',  ( 1.000000000000000000, -1.224646799147353200E-016, -2.249565377136127700E-032 ) ) ;
#77 = CIRCLE ( 'NONE', #276, 0.2422900286534946100 ) ;
#78 = COORDINATED_UNIVERSAL_TIME_OFFSET ( 5, 0, .BEHIND. ) ;
#79 = DIRECTION ( 'NONE',  ( 7.801757686848489700E-017, 0.6370618607977724900, 0.7708126786171070100 ) ) ;
#80 = CARTESIAN_POINT ( 'NONE',  ( 0.0000000000000000000, -3.414809992080329000E-017, 1.243045993791513300 ) ) ;
#81 = DIRECTION ( 'NONE',  ( -0.0000000000000000000, -1.836909530733565600E-016, 1.000000000000000000 ) ) ;
#82 = LOCAL_TIME ( 14, 10, 7.000000000000000000, #85 ) ;
#83 = EDGE_CURVE ( 'NONE', #183, #323, #161, .T. ) ;
#84 = EDGE_LOOP ( 'NONE', ( #289, #194, #301, #298 ) ) ;
#85 = COORDINATED_UNIVERSAL_TIME_OFFSET ( 5, 0, .BEHIND. ) ;
#86 = APPLICATION_PROTOCOL_DEFINITION ( 'international standard', 'config_control_design', 1994, #326 ) ;
#87 = ORIENTED_EDGE ( 'NONE', *, *, #56, .F. ) ;
#88 = DIRECTION ( 'NONE',  ( 0.0000000000000000000, 0.7071067811865497900, -0.7071067811865452400 ) ) ;
#89 = CC_DESIGN_DATE_AND_TIME_ASSIGNMENT ( #255, #93, ( #8 ) ) ;
#90 = LINE ( 'NONE', #292, #190 ) ;
#91 = CALENDAR_DATE ( 2018, 1, 6 ) ;
#92 = ORIENTED_EDGE ( 'NONE', *, *, #159, .T. ) ;
#93 = DATE_TIME_ROLE ( 'creation_date' ) ;
#94 = AXIS2_PLACEMENT_3D ( 'NONE', #235, #173, #249 ) ;
#95 = CARTESIAN_POINT ( 'NONE',  ( 0.0000000000000000000, -3.414809992080329000E-017, 0.6709200095395447800 ) ) ;
#96 = CARTESIAN_POINT ( 'NONE',  ( 0.0000000000000000000, -4.207670011193372400E-017, 0.07668114938551640100 ) ) ;
#97 = DIRECTION ( 'NONE',  ( 0.0000000000000000000, 1.836909530733567100E-016, -1.000000000000000000 ) ) ;
#98 = DIRECTION ( 'NONE',  ( 8.659560562354960000E-017, -0.7071067811865495700, -0.7071067811865454600 ) ) ;
#99 = DIRECTION ( 'NONE',  ( -1.000000000000000000, 0.0000000000000000000, 0.0000000000000000000 ) ) ;
#100 = DESIGN_CONTEXT ( 'detailed design', #326, 'design' ) ;
#101 = EDGE_LOOP ( 'NONE', ( #109, #87, #60, #185 ) ) ;
#102 = CARTESIAN_POINT ( 'NONE',  ( 0.0000000000000000000, -4.309944907697932100E-017, 0.08224891931611914800 ) ) ;
#103 = EDGE_CURVE ( 'NONE', #131, #312, #256, .T. ) ;
#104 = APPROVAL_PERSON_ORGANIZATION ( #116, #123, #261 ) ;
#105 = EDGE_LOOP ( 'NONE', ( #139, #145, #32, #322 ) ) ;
#106 = CARTESIAN_POINT ( 'NONE',  ( 0.0000000000000000000, 2.056314105518306800E-016, -0.06229597575490401100 ) ) ;
#107 = PRODUCT_DEFINITION_FORMATION_WITH_SPECIFIED_SOURCE ( 'ANY', '', #1, .NOT_KNOWN. ) ;
#108 = CARTESIAN_POINT ( 'NONE',  ( 0.0000000000000000000, -0.2500000000000000000, -0.05296729979521180200 ) ) ;
#109 = ORIENTED_EDGE ( 'NONE', *, *, #148, .F. ) ;
#110 = CIRCLE ( 'NONE', #75, 0.2444322300693971800 ) ;
#111 = CIRCLE ( 'NONE', #31, 0.2499999999999999700 ) ;
#112 = APPROVAL_STATUS ( 'not_yet_approved' ) ;
#113 = AXIS2_PLACEMENT_3D ( 'NONE', #278, #321, #126 ) ;
#114 = DIRECTION ( 'NONE',  ( 0.0000000000000000000, -1.000000000000000000, -2.057675672827005600E-016 ) ) ;
#115 = SHAPE_DEFINITION_REPRESENTATION ( #272, #200 ) ;
#116 = PERSON_AND_ORGANIZATION ( #295, #228 ) ;
#117 = CARTESIAN_POINT ( 'NONE',  ( 0.0000000000000000000, -3.414809992080329000E-017, 0.03351843473639503500 ) ) ;
#118 = EDGE_CURVE ( 'NONE', #323, #183, #111, .T. ) ;
#119 = CIRCLE ( 'NONE', #193, 0.6374015748031497400 ) ;
#120 = LOCAL_TIME ( 14, 10, 7.000000000000000000, #238 ) ;
#121 = COORDINATED_UNIVERSAL_TIME_OFFSET ( 5, 0, .BEHIND. ) ;
#122 = DIRECTION ( 'NONE',  ( -0.0000000000000000000, -1.836909530733565600E-016, 1.000000000000000000 ) ) ;
#123 = APPROVAL ( #112, 'UNSPECIFIED' ) ;
#124 = CYLINDRICAL_SURFACE ( 'NONE', #327, 0.2499999999999999700 ) ;
#125 = DIRECTION ( 'NONE',  ( -0.0000000000000000000, -1.836909530733565600E-016, 1.000000000000000000 ) ) ;
#126 = DIRECTION ( 'NONE',  ( 0.0000000000000000000, 1.000000000000000000, 2.142956733757636600E-016 ) ) ;
#127 = CIRCLE ( 'NONE', #168, 1.327637795275590900 ) ;
#128 = AXIS2_PLACEMENT_3D ( 'NONE', #20, #149, #133 ) ;
#129 = CARTESIAN_POINT ( 'NONE',  ( 0.0000000000000000000, -3.414809992080329000E-017, 1.243045993791513300 ) ) ;
#130 = ORIENTED_EDGE ( 'NONE', *, *, #56, .T. ) ;
#131 = VERTEX_POINT ( 'NONE', #206 ) ;
#132 = DIRECTION ( 'NONE',  ( -0.0000000000000000000, -1.836909530733567100E-016, 1.000000000000000000 ) ) ;
#133 = DIRECTION ( 'NONE',  ( 0.0000000000000000000, 1.000000000000000000, 1.707404996040164800E-016 ) ) ;
#134 = LOCAL_TIME ( 14, 10, 7.000000000000000000, #205 ) ;
#135 = EDGE_CURVE ( 'NONE', #210, #247, #2, .T. ) ;
#136 = CC_DESIGN_APPROVAL ( #123, ( #107 ) ) ;
#137 = DIRECTION ( 'NONE',  ( 0.0000000000000000000, -1.000000000000000000, -1.878145495644181100E-016 ) ) ;
#138 =( CONVERSION_BASED_UNIT ( 'INCH', #73 ) LENGTH_UNIT ( ) NAMED_UNIT ( #70 ) );
#139 = ORIENTED_EDGE ( 'NONE', *, *, #174, .F. ) ;
#140 = CIRCLE ( 'NONE', #143, 0.2499999999999999700 ) ;
#141 = LOCAL_TIME ( 14, 10, 7.000000000000000000, #78 ) ;
#142 = DIRECTION ( 'NONE',  ( 0.0000000000000000000, -1.000000000000000000, -1.707404996040164800E-016 ) ) ;
#143 = AXIS2_PLACEMENT_3D ( 'NONE', #258, #203, #74 ) ;
#144 = APPLICATION_PROTOCOL_DEFINITION ( 'international standard', 'config_control_design', 1994, #61 ) ;
#145 = ORIENTED_EDGE ( 'NONE', *, *, #36, .F. ) ;
#146 = DATE_TIME_ROLE ( 'classification_date' ) ;
#147 = CARTESIAN_POINT ( 'NONE',  ( 0.0000000000000000000, -1.826145291744313700E-017, -0.05296729979521176000 ) ) ;
#148 = EDGE_CURVE ( 'NONE', #210, #183, #57, .T. ) ;
#149 = DIRECTION ( 'NONE',  ( 0.0000000000000000000, 1.836909530733565600E-016, -1.000000000000000000 ) ) ;
#150 = CC_DESIGN_PERSON_AND_ORGANIZATION_ASSIGNMENT ( #23, #311, ( #107 ) ) ;
#151 = PERSON_AND_ORGANIZATION_ROLE ( 'creator' ) ;
#152 = EDGE_LOOP ( 'NONE', ( #18, #34, #294, #17 ) ) ;
#153 = APPROVAL_ROLE ( '' ) ;
#154 = DIRECTION ( 'NONE',  ( 1.224646799147353200E-016, 1.000000000000000000, 0.0000000000000000000 ) ) ;
#155 = SPHERICAL_SURFACE ( 'NONE', #219, 0.6374015748031497400 ) ;
#156 = AXIS2_PLACEMENT_3D ( 'NONE', #117, #81, #202 ) ;
#157 = CARTESIAN_POINT ( 'NONE',  ( 0.0000000000000000000, -0.2500000000000000000, -0.05296729979521180200 ) ) ;
#158 = FACE_OUTER_BOUND ( 'NONE', #46, .T. ) ;
#159 = EDGE_CURVE ( 'NONE', #12, #284, #110, .T. ) ;
#160 = CARTESIAN_POINT ( 'NONE',  ( 3.061616997868382400E-017, 0.2499999999999999200, -0.05296729979521171800 ) ) ;
#161 = CIRCLE ( 'NONE', #308, 0.2499999999999999700 ) ;
#162 = CARTESIAN_POINT ( 'NONE',  ( 0.0000000000000000000, -1.826145291744312200E-017, -0.05296729979521176000 ) ) ;
#163 = CC_DESIGN_PERSON_AND_ORGANIZATION_ASSIGNMENT ( #26, #275, ( #107 ) ) ;
#164 = FACE_OUTER_BOUND ( 'NONE', #58, .T. ) ;
#165 = CARTESIAN_POINT ( 'NONE',  ( 0.0000000000000000000, -1.826145291744312200E-017, -0.05296729979521176000 ) ) ;
#166 = CYLINDRICAL_SURFACE ( 'NONE', #156, 0.2499999999999999700 ) ;
#167 = DIRECTION ( 'NONE',  ( 0.0000000000000000000, 0.0000000000000000000, 1.000000000000000000 ) ) ;
#168 = AXIS2_PLACEMENT_3D ( 'NONE', #186, #330, #252 ) ;
#169 = VECTOR ( 'NONE', #309, 39.37007874015748100 ) ;
#170 = DIRECTION ( 'NONE',  ( 0.0000000000000000000, -0.6370618607977727200, 0.7708126786171068900 ) ) ;
#171 = VECTOR ( 'NONE', #207, 39.37007874015748100 ) ;
#172 = ORIENTED_EDGE ( 'NONE', *, *, #22, .T. ) ;
#173 = DIRECTION ( 'NONE',  ( 0.0000000000000000000, 1.836909530733565600E-016, -1.000000000000000000 ) ) ;
#174 = EDGE_CURVE ( 'NONE', #12, #312, #5, .T. ) ;
#175 = DATE_AND_TIME ( #65, #141 ) ;
#176 = SECURITY_CLASSIFICATION ( '', '', #232 ) ;
#177 = ORIENTED_EDGE ( 'NONE', *, *, #250, .F. ) ;
#178 = ORIENTED_EDGE ( 'NONE', *, *, #268, .T. ) ;
#179 = DIRECTION ( 'NONE',  ( 0.0000000000000000000, -1.000000000000000000, -1.707404996040164800E-016 ) ) ;
#180 = MECHANICAL_CONTEXT ( 'NONE', #61, 'mechanical' ) ;
#181 = AXIS2_PLACEMENT_3D ( 'NONE', #80, #245, #114 ) ;
#182 = ADVANCED_FACE ( 'NONE', ( #192 ), #236, .F. ) ;
#183 = VERTEX_POINT ( 'NONE', #221 ) ;
#184 = DIRECTION ( 'NONE',  ( -0.0000000000000000000, -1.836909530733567100E-016, 1.000000000000000000 ) ) ;
#185 = ORIENTED_EDGE ( 'NONE', *, *, #83, .F. ) ;
#186 = CARTESIAN_POINT ( 'NONE',  ( 0.0000000000000000000, -3.414809992080329000E-017, 1.243045993791513300 ) ) ;
#187 = ADVANCED_FACE ( 'NONE', ( #324 ), #244, .T. ) ;
#188 = CALENDAR_DATE ( 2018, 1, 6 ) ;
#189 = ADVANCED_FACE ( 'NONE', ( #305 ), #166, .T. ) ;
#190 = VECTOR ( 'NONE', #88, 39.37007874015748100 ) ;
#191 = DIRECTION ( 'NONE',  ( -0.0000000000000000000, -1.836909530733565600E-016, 1.000000000000000000 ) ) ;
#192 = FACE_OUTER_BOUND ( 'NONE', #55, .T. ) ;
#193 = AXIS2_PLACEMENT_3D ( 'NONE', #44, #217, #296 ) ;
#194 = ORIENTED_EDGE ( 'NONE', *, *, #250, .T. ) ;
#195 = CARTESIAN_POINT ( 'NONE',  ( 0.0000000000000000000, -0.2500000000000000000, 0.03351843473639499300 ) ) ;
#196 = FACE_OUTER_BOUND ( 'NONE', #303, .T. ) ;
#197 = APPROVAL_DATE_TIME ( #175, #123 ) ;
#198 = CONICAL_SURFACE ( 'NONE', #128, 0.2499999999999999700, 0.7853981633974513900 ) ;
#199 = CC_DESIGN_PERSON_AND_ORGANIZATION_ASSIGNMENT ( #315, #40, ( #176 ) ) ;
#200 = ADVANCED_BREP_SHAPE_REPRESENTATION ( '20183-E0W', ( #220, #299 ), #231 ) ;
#201 = PERSON_AND_ORGANIZATION ( #295, #228 ) ;
#202 = DIRECTION ( 'NONE',  ( 0.0000000000000000000, -1.000000000000000000, -1.878145495644181100E-016 ) ) ;
#203 = DIRECTION ( 'NONE',  ( -0.0000000000000000000, -1.836909530733565600E-016, 1.000000000000000000 ) ) ;
#204 = AXIS2_PLACEMENT_3D ( 'NONE', #129, #76, #154 ) ;
#205 = COORDINATED_UNIVERSAL_TIME_OFFSET ( 5, 0, .BEHIND. ) ;
#206 = CARTESIAN_POINT ( 'NONE',  ( 3.061616997868382400E-017, 0.2499999999999999200, 0.07668114938551644200 ) ) ;
#207 = DIRECTION ( 'NONE',  ( -0.0000000000000000000, -1.836909530733565600E-016, 1.000000000000000000 ) ) ;
#208 = DIRECTION ( 'NONE',  ( 0.0000000000000000000, 1.836909530733567100E-016, -1.000000000000000000 ) ) ;
#209 = AXIS2_PLACEMENT_3D ( 'NONE', #165, #288, #270 ) ;
#210 = VERTEX_POINT ( 'NONE', #283 ) ;
#211 = CARTESIAN_POINT ( 'NONE',  ( 0.0000000000000000000, 2.056314105518306800E-016, -0.06229597575490401100 ) ) ;
#212 = CLOSED_SHELL ( 'NONE', ( #13, #187, #189, #269, #287, #182, #68, #62, #216, #35 ) ) ;
#213 = CC_DESIGN_DATE_AND_TIME_ASSIGNMENT ( #11, #146, ( #176 ) ) ;
#214 = DIRECTION ( 'NONE',  ( 0.0000000000000000000, -1.000000000000000000, -1.707404996040164800E-016 ) ) ;
#215 = EDGE_CURVE ( 'NONE', #312, #131, #140, .T. ) ;
#216 = ADVANCED_FACE ( 'NONE', ( #53 ), #198, .T. ) ;
#217 = DIRECTION ( 'NONE',  ( 1.000000000000000000, 0.0000000000000000000, 0.0000000000000000000 ) ) ;
#218 = APPROVAL_DATE_TIME ( #21, #226 ) ;
#219 = AXIS2_PLACEMENT_3D ( 'NONE', #95, #99, #43 ) ;
#220 = MANIFOLD_SOLID_BREP ( '20183-001-1-solid1', #212 ) ;
#221 = CARTESIAN_POINT ( 'NONE',  ( 3.061616997868382400E-017, 0.2499999999999999200, -0.05296729979521171800 ) ) ;
#222 = AXIS2_PLACEMENT_3D ( 'NONE', #45, #241, #237 ) ;
#223 = CALENDAR_DATE ( 2018, 1, 6 ) ;
#224 = DIRECTION ( 'NONE',  ( 0.0000000000000000000, -1.000000000000000000, -1.761736755665221500E-016 ) ) ;
#225 = DIRECTION ( 'NONE',  ( 0.0000000000000000000, -1.000000000000000000, -2.095556296592407800E-016 ) ) ;
#226 = APPROVAL ( #318, 'UNSPECIFIED' ) ;
#227 = ORIENTED_EDGE ( 'NONE', *, *, #229, .F. ) ;
#228 = ORGANIZATION ( 'UNSPECIFIED', 'UNSPECIFIED', '' ) ;
#229 = EDGE_CURVE ( 'NONE', #284, #131, #90, .T. ) ;
#230 = SPHERICAL_SURFACE ( 'NONE', #293, 1.327637795275590700 ) ;
#231 =( GEOMETRIC_REPRESENTATION_CONTEXT ( 3 ) GLOBAL_UNCERTAINTY_ASSIGNED_CONTEXT ( ( #49 ) ) GLOBAL_UNIT_ASSIGNED_CONTEXT ( ( #138, #15, #328 ) ) REPRESENTATION_CONTEXT ( 'NONE', 'WORKASPACE' ) );
#232 = SECURITY_CLASSIFICATION_LEVEL ( 'unclassified' ) ;
#233 =( LENGTH_UNIT ( ) NAMED_UNIT ( * ) SI_UNIT ( $, .METRE. ) );
#234 = CIRCLE ( 'NONE', #262, 0.2444322300693971800 ) ;
#235 = CARTESIAN_POINT ( 'NONE',  ( 0.0000000000000000000, -4.207670011193372400E-017, 0.07668114938551640100 ) ) ;
#236 = SPHERICAL_SURFACE ( 'NONE', #113, 0.6374015748031497400 ) ;
#237 = DIRECTION ( 'NONE',  ( -1.224646799147353200E-016, -1.000000000000000000, 0.0000000000000000000 ) ) ;
#238 = COORDINATED_UNIVERSAL_TIME_OFFSET ( 5, 0, .BEHIND. ) ;
#239 = ORIENTED_EDGE ( 'NONE', *, *, #135, .T. ) ;
#240 = DIRECTION ( 'NONE',  ( -0.0000000000000000000, -1.836909530733565600E-016, 1.000000000000000000 ) ) ;
#241 = DIRECTION ( 'NONE',  ( -1.000000000000000000, 1.224646799147353200E-016, 2.249565377136127700E-032 ) ) ;
#242 = EDGE_LOOP ( 'NONE', ( #47, #259, #239 ) ) ;
#243 = AXIS2_PLACEMENT_3D ( 'NONE', #162, #132, #142 ) ;
#244 = CONICAL_SURFACE ( 'NONE', #94, 0.2499999999999999700, 0.7853981633974513900 ) ;
#245 = DIRECTION ( 'NONE',  ( 1.000000000000000000, 0.0000000000000000000, 0.0000000000000000000 ) ) ;
#246 = ORIENTED_EDGE ( 'NONE', *, *, #281, .T. ) ;
#247 = VERTEX_POINT ( 'NONE', #29 ) ;
#248 = CC_DESIGN_APPROVAL ( #226, ( #176 ) ) ;
#249 = DIRECTION ( 'NONE',  ( 0.0000000000000000000, 1.000000000000000000, 1.707404996040164800E-016 ) ) ;
#250 = EDGE_CURVE ( 'NONE', #183, #131, #41, .T. ) ;
#251 = DIRECTION ( 'NONE',  ( 1.000000000000000000, 0.0000000000000000000, 0.0000000000000000000 ) ) ;
#252 = DIRECTION ( 'NONE',  ( 0.0000000000000000000, 0.0000000000000000000, 1.000000000000000000 ) ) ;
#253 = CARTESIAN_POINT ( 'NONE',  ( 0.0000000000000000000, -0.2500000000000000000, 0.07668114938551635900 ) ) ;
#254 = CARTESIAN_POINT ( 'NONE',  ( 0.0000000000000000000, 1.284325832090147500E-016, -0.08459180148407732800 ) ) ;
#255 = DATE_AND_TIME ( #188, #325 ) ;
#256 = CIRCLE ( 'NONE', #14, 0.2499999999999999700 ) ;
#257 = APPROVAL_ROLE ( '' ) ;
#258 = CARTESIAN_POINT ( 'NONE',  ( 0.0000000000000000000, -4.207670011193372400E-017, 0.07668114938551640100 ) ) ;
#259 = ORIENTED_EDGE ( 'NONE', *, *, #314, .T. ) ;
#260 = DATE_AND_TIME ( #223, #134 ) ;
#261 = APPROVAL_ROLE ( '' ) ;
#262 = AXIS2_PLACEMENT_3D ( 'NONE', #33, #240, #225 ) ;
#263 = CARTESIAN_POINT ( 'NONE',  ( 0.0000000000000000000, -3.414809992080329000E-017, 0.03351843473639503500 ) ) ;
#264 = CC_DESIGN_SECURITY_CLASSIFICATION ( #176, ( #107 ) ) ;
#265 = DIRECTION ( 'NONE',  ( 0.0000000000000000000, -1.000000000000000000, -2.095556296592407800E-016 ) ) ;
#266 = CARTESIAN_POINT ( 'NONE',  ( 3.061616997868382400E-017, 0.2499999999999999200, 0.03351843473639508400 ) ) ;
#267 = ORIENTED_EDGE ( 'NONE', *, *, #174, .T. ) ;
#268 = EDGE_CURVE ( 'NONE', #323, #312, #274, .T. ) ;
#269 = ADVANCED_FACE ( 'NONE', ( #27 ), #48, .T. ) ;
#270 = DIRECTION ( 'NONE',  ( 0.0000000000000000000, -1.000000000000000000, -1.707404996040164800E-016 ) ) ;
#271 = PERSON_AND_ORGANIZATION_ROLE ( 'design_owner' ) ;
#272 = PRODUCT_DEFINITION_SHAPE ( 'NONE', 'NONE',  #8 ) ;
#273 = DIRECTION ( 'NONE',  ( 0.0000000000000000000, -1.000000000000000000, -1.707404996040164800E-016 ) ) ;
#274 = LINE ( 'NONE', #195, #169 ) ;
#275 = PERSON_AND_ORGANIZATION_ROLE ( 'design_supplier' ) ;
#276 = AXIS2_PLACEMENT_3D ( 'NONE', #211, #208, #224 ) ;
#277 = ORIENTED_EDGE ( 'NONE', *, *, #83, .T. ) ;
#278 = CARTESIAN_POINT ( 'NONE',  ( 0.0000000000000000000, -3.414809992080329000E-017, 0.6709200095395447800 ) ) ;
#279 = PRODUCT_RELATED_PRODUCT_CATEGORY ( 'detail', '', ( #1 ) ) ;
#280 = ORIENTED_EDGE ( 'NONE', *, *, #3, .F. ) ;
#281 = EDGE_CURVE ( 'NONE', #304, #247, #127, .T. ) ;
#282 = ORIENTED_EDGE ( 'NONE', *, *, #22, .F. ) ;
#283 = CARTESIAN_POINT ( 'NONE',  ( 2.967197080558222300E-017, 0.2422900286534944400, -0.06229597575490405900 ) ) ;
#284 = VERTEX_POINT ( 'NONE', #69 ) ;
#285 = CARTESIAN_POINT ( 'NONE',  ( 0.0000000000000000000, -1.826145291744313700E-017, -0.05296729979521176000 ) ) ;
#286 = CARTESIAN_POINT ( 'NONE',  ( 3.061616997868382400E-017, -0.2500000000000000000, 0.07668114938551635900 ) ) ;
#287 = ADVANCED_FACE ( 'NONE', ( #164 ), #155, .F. ) ;
#288 = DIRECTION ( 'NONE',  ( -0.0000000000000000000, -1.836909530733567100E-016, 1.000000000000000000 ) ) ;
#289 = ORIENTED_EDGE ( 'NONE', *, *, #118, .T. ) ;
#290 = ORIENTED_EDGE ( 'NONE', *, *, #215, .T. ) ;
#291 = ORIENTED_EDGE ( 'NONE', *, *, #36, .T. ) ;
#292 = CARTESIAN_POINT ( 'NONE',  ( 0.0000000000000000000, 0.2499999999999999200, 0.07668114938551644200 ) ) ;
#293 = AXIS2_PLACEMENT_3D ( 'NONE', #10, #251, #313 ) ;
#294 = ORIENTED_EDGE ( 'NONE', *, *, #118, .F. ) ;
#295 = PERSON ( 'UNSPECIFIED', 'UNSPECIFIED', 'UNSPECIFIED', ('UNSPECIFIED'), ('UNSPECIFIED'), ('UNSPECIFIED') ) ;
#296 = DIRECTION ( 'NONE',  ( 0.0000000000000000000, 0.0000000000000000000, -1.000000000000000000 ) ) ;
#297 = EDGE_CURVE ( 'NONE', #247, #323, #71, .T. ) ;
#298 = ORIENTED_EDGE ( 'NONE', *, *, #268, .F. ) ;
#299 = AXIS2_PLACEMENT_3D ( 'NONE', #4, #167, #317 ) ;
#300 = APPROVAL_STATUS ( 'not_yet_approved' ) ;
#301 = ORIENTED_EDGE ( 'NONE', *, *, #215, .F. ) ;
#302 = VECTOR ( 'NONE', #79, 39.37007874015748100 ) ;
#303 = EDGE_LOOP ( 'NONE', ( #42, #246, #130 ) ) ;
#304 = VERTEX_POINT ( 'NONE', #254 ) ;
#305 = FACE_OUTER_BOUND ( 'NONE', #84, .T. ) ;
#306 = ORIENTED_EDGE ( 'NONE', *, *, #103, .F. ) ;
#307 = VERTEX_POINT ( 'NONE', #50 ) ;
#308 = AXIS2_PLACEMENT_3D ( 'NONE', #147, #320, #214 ) ;
#309 = DIRECTION ( 'NONE',  ( -0.0000000000000000000, -1.836909530733565600E-016, 1.000000000000000000 ) ) ;
#310 = CARTESIAN_POINT ( 'NONE',  ( -2.993431481629367800E-017, -0.2444322300693971800, 0.08224891931611910700 ) ) ;
#311 = PERSON_AND_ORGANIZATION_ROLE ( 'creator' ) ;
#312 = VERTEX_POINT ( 'NONE', #253 ) ;
#313 = DIRECTION ( 'NONE',  ( 0.0000000000000000000, -1.000000000000000000, -2.057675672827005600E-016 ) ) ;
#314 = EDGE_CURVE ( 'NONE', #304, #210, #38, .T. ) ;
#315 = PERSON_AND_ORGANIZATION ( #295, #228 ) ;
#316 = VECTOR ( 'NONE', #170, 39.37007874015748900 ) ;
#317 = DIRECTION ( 'NONE',  ( 1.000000000000000000, 0.0000000000000000000, 0.0000000000000000000 ) ) ;
#318 = APPROVAL_STATUS ( 'not_yet_approved' ) ;
#319 = CC_DESIGN_PERSON_AND_ORGANIZATION_ASSIGNMENT ( #201, #271, ( #1 ) ) ;
#320 = DIRECTION ( 'NONE',  ( -0.0000000000000000000, -1.836909530733567100E-016, 1.000000000000000000 ) ) ;
#321 = DIRECTION ( 'NONE',  ( -1.000000000000000000, 0.0000000000000000000, 0.0000000000000000000 ) ) ;
#322 = ORIENTED_EDGE ( 'NONE', *, *, #103, .T. ) ;
#323 = VERTEX_POINT ( 'NONE', #108 ) ;
#324 = FACE_OUTER_BOUND ( 'NONE', #24, .T. ) ;
#325 = LOCAL_TIME ( 14, 10, 7.000000000000000000, #121 ) ;
#326 = APPLICATION_CONTEXT ( 'configuration controlled 3d designs of mechanical parts and assemblies' ) ;
#327 = AXIS2_PLACEMENT_3D ( 'NONE', #263, #191, #137 ) ;
#328 =( NAMED_UNIT ( * ) SI_UNIT ( $, .STERADIAN. ) SOLID_ANGLE_UNIT ( ) );
#329 = CONICAL_SURFACE ( 'NONE', #243, 0.2499999999999999700, 0.6906804910315419400 ) ;
#330 = DIRECTION ( 'NONE',  ( -1.000000000000000000, 0.0000000000000000000, -0.0000000000000000000 ) ) ;
ENDSEC;
END-ISO-10303-21;
