ISO-10303-21;
HEADER;
FILE_DESCRIPTION (( 'STEP AP203' ),
    '1' );
FILE_NAME ('Ø25mm High Energy Laser Line Polarizer_86707.step',
    '2018-07-19T13:00:44',
    ( '' ),
    ( '' ),
    'SwSTEP 2.0',
    'SolidWorks 2016',
    '' );
FILE_SCHEMA (( 'CONFIG_CONTROL_DESIGN' ));
ENDSEC;

DATA;
#1 = CYLINDRICAL_SURFACE ( 'NONE', #27, 0.4921259842519684100 ) ;
#2 = ORIENTED_EDGE ( 'NONE', *, *, #85, .T. ) ;
#3 = DATE_TIME_ROLE ( 'classification_date' ) ;
#4 = CALENDAR_DATE ( 2018, 19, 7 ) ;
#5 = ORIENTED_EDGE ( 'NONE', *, *, #85, .F. ) ;
#6 = ORIENTED_EDGE ( 'NONE', *, *, #110, .T. ) ;
#7 = CARTESIAN_POINT ( 'NONE',  ( -1.344802655118419300, 1.220614474678271000, -0.2575388198975657700 ) ) ;
#8 = DATE_AND_TIME ( #90, #67 ) ;
#9 = CIRCLE ( 'NONE', #269, 0.4851662718503937900 ) ;
#10 = CARTESIAN_POINT ( 'NONE',  ( -0.8596363832680253800, 1.220614474678271000, -0.4937592923385106800 ) ) ;
#11 = DIRECTION ( 'NONE',  ( 0.7071067811865509000, 0.0000000000000000000, 0.7071067811865440200 ) ) ;
#12 = PLANE ( 'NONE',  #171 ) ;
#13 = ORIENTED_EDGE ( 'NONE', *, *, #46, .F. ) ;
#14 = DIRECTION ( 'NONE',  ( 1.000000000000000000, 0.0000000000000000000, 0.0000000000000000000 ) ) ;
#15 = VECTOR ( 'NONE', #39, 39.37007874015748100 ) ;
#16 = ORIENTED_EDGE ( 'NONE', *, *, #20, .T. ) ;
#17 = CARTESIAN_POINT ( 'NONE',  ( -0.3744701114176315900, 1.220614474678271000, -0.4937592923385106800 ) ) ;
#18 = CARTESIAN_POINT ( 'NONE',  ( -0.8596363832680253800, 1.220614474678271000, -0.2575388198975657700 ) ) ;
#19 = ADVANCED_FACE ( 'NONE', ( #149 ), #168, .T. ) ;
#20 = EDGE_CURVE ( 'NONE', #86, #227, #250, .T. ) ;
#21 = APPROVAL_ROLE ( '' ) ;
#22 = AXIS2_PLACEMENT_3D ( 'NONE', #10, #55, #217 ) ;
#23 = APPROVAL_STATUS ( 'not_yet_approved' ) ;
#24 = APPROVAL_DATE_TIME ( #256, #234 ) ;
#25 = PERSON_AND_ORGANIZATION_ROLE ( 'design_supplier' ) ;
#26 = ORIENTED_EDGE ( 'NONE', *, *, #49, .F. ) ;
#27 = AXIS2_PLACEMENT_3D ( 'NONE', #141, #113, #114 ) ;
#28 = CONICAL_SURFACE ( 'NONE', #97, 0.4851662718503939600, 0.7853981633974433900 ) ;
#29 = DIRECTION ( 'NONE',  ( -0.0000000000000000000, -0.0000000000000000000, 1.000000000000000000 ) ) ;
#30 = CARTESIAN_POINT ( 'NONE',  ( -0.8596363832680253800, 1.220614474678271000, -0.4867995799369360100 ) ) ;
#31 = CC_DESIGN_PERSON_AND_ORGANIZATION_ASSIGNMENT ( #175, #147, ( #224 ) ) ;
#32 = DIRECTION ( 'NONE',  ( -0.0000000000000000000, -0.0000000000000000000, -1.000000000000000000 ) ) ;
#33 = DATE_AND_TIME ( #249, #165 ) ;
#34 = PERSON_AND_ORGANIZATION ( #98, #151 ) ;
#35 = DIRECTION ( 'NONE',  ( 0.0000000000000000000, 0.0000000000000000000, 1.000000000000000000 ) ) ;
#36 = VERTEX_POINT ( 'NONE', #47 ) ;
#37 = ADVANCED_FACE ( 'NONE', ( #91 ), #107, .T. ) ;
#38 = DIRECTION ( 'NONE',  ( 0.0000000000000000000, 0.0000000000000000000, -1.000000000000000000 ) ) ;
#39 = DIRECTION ( 'NONE',  ( -0.0000000000000000000, -0.0000000000000000000, -1.000000000000000000 ) ) ;
#40 = PRODUCT_RELATED_PRODUCT_CATEGORY ( 'detail', '', ( #271 ) ) ;
#41 = CC_DESIGN_APPROVAL ( #272, ( #186 ) ) ;
#42 = MANIFOLD_SOLID_BREP ( '83977310-1-solid1', #125 ) ;
#43 = APPROVAL_STATUS ( 'not_yet_approved' ) ;
#44 = EDGE_LOOP ( 'NONE', ( #13, #69, #6, #131 ) ) ;
#45 = PERSON_AND_ORGANIZATION ( #98, #151 ) ;
#46 = EDGE_CURVE ( 'NONE', #86, #169, #184, .T. ) ;
#47 = CARTESIAN_POINT ( 'NONE',  ( -0.3675103990160568700, 1.220614474678271000, -0.2644985322991403300 ) ) ;
#48 = EDGE_CURVE ( 'NONE', #62, #169, #196, .T. ) ;
#49 = EDGE_CURVE ( 'NONE', #211, #36, #257, .T. ) ;
#50 = CC_DESIGN_PERSON_AND_ORGANIZATION_ASSIGNMENT ( #120, #25, ( #101 ) ) ;
#51 = CIRCLE ( 'NONE', #146, 0.4851662718503940700 ) ;
#52 = DIRECTION ( 'NONE',  ( 1.000000000000000000, 0.0000000000000000000, 0.0000000000000000000 ) ) ;
#53 = CARTESIAN_POINT ( 'NONE',  ( -0.8596363832680253800, 1.220614474678271000, -0.4937592923385106800 ) ) ;
#54 = PRODUCT_DEFINITION_SHAPE ( 'NONE', 'NONE',  #224 ) ;
#55 = DIRECTION ( 'NONE',  ( 0.0000000000000000000, 0.0000000000000000000, 1.000000000000000000 ) ) ;
#56 = FACE_OUTER_BOUND ( 'NONE', #233, .T. ) ;
#57 = ORIENTED_EDGE ( 'NONE', *, *, #153, .T. ) ;
#58 = CARTESIAN_POINT ( 'NONE',  ( -0.8596363832680253800, 1.220614474678271000, -0.2575388198975657700 ) ) ;
#59 = LOCAL_TIME ( 9, 0, 44.00000000000000000, #66 ) ;
#60 = DIRECTION ( 'NONE',  ( 0.0000000000000000000, 0.0000000000000000000, 1.000000000000000000 ) ) ;
#61 = DIRECTION ( 'NONE',  ( 1.000000000000000000, 0.0000000000000000000, -0.0000000000000000000 ) ) ;
#62 = VERTEX_POINT ( 'NONE', #177 ) ;
#63 = AXIS2_PLACEMENT_3D ( 'NONE', #235, #29, #260 ) ;
#64 = EDGE_CURVE ( 'NONE', #258, #211, #51, .T. ) ;
#65 = PERSON_AND_ORGANIZATION_ROLE ( 'classification_officer' ) ;
#66 = COORDINATED_UNIVERSAL_TIME_OFFSET ( 5, 0, .BEHIND. ) ;
#67 = LOCAL_TIME ( 9, 0, 44.00000000000000000, #122 ) ;
#68 = VECTOR ( 'NONE', #261, 39.37007874015748100 ) ;
#69 = ORIENTED_EDGE ( 'NONE', *, *, #112, .F. ) ;
#70 = CC_DESIGN_DATE_AND_TIME_ASSIGNMENT ( #239, #3, ( #186 ) ) ;
#71 = DIRECTION ( 'NONE',  ( -0.0000000000000000000, -0.0000000000000000000, -1.000000000000000000 ) ) ;
#72 = PERSON_AND_ORGANIZATION ( #98, #151 ) ;
#73 = COORDINATED_UNIVERSAL_TIME_OFFSET ( 5, 0, .BEHIND. ) ;
#74 = CARTESIAN_POINT ( 'NONE',  ( -1.344802655118419300, 1.220614474678271000, -0.4937592923385106800 ) ) ;
#75 = DIRECTION ( 'NONE',  ( -1.000000000000000000, 0.0000000000000000000, 0.0000000000000000000 ) ) ;
#76 = EDGE_LOOP ( 'NONE', ( #172, #108, #88, #237 ) ) ;
#77 = CARTESIAN_POINT ( 'NONE',  ( -0.8596363832680253800, 1.220614474678271000, -0.2644985322991403300 ) ) ;
#78 = PERSON_AND_ORGANIZATION_ROLE ( 'design_owner' ) ;
#79 = LOCAL_TIME ( 9, 0, 44.00000000000000000, #136 ) ;
#80 = DIRECTION ( 'NONE',  ( -0.0000000000000000000, -0.0000000000000000000, 1.000000000000000000 ) ) ;
#81 = ORIENTED_EDGE ( 'NONE', *, *, #127, .F. ) ;
#82 =( NAMED_UNIT ( * ) SI_UNIT ( $, .STERADIAN. ) SOLID_ANGLE_UNIT ( ) );
#83 = DIRECTION ( 'NONE',  ( 0.0000000000000000000, 0.0000000000000000000, 1.000000000000000000 ) ) ;
#84 = CARTESIAN_POINT ( 'NONE',  ( -0.8596363832680253800, 1.220614474678271000, -0.4867995799369360100 ) ) ;
#85 = EDGE_CURVE ( 'NONE', #258, #205, #236, .T. ) ;
#86 = VERTEX_POINT ( 'NONE', #74 ) ;
#87 = LENGTH_MEASURE_WITH_UNIT ( LENGTH_MEASURE( 0.02539999999999999900 ), #199 );
#88 = ORIENTED_EDGE ( 'NONE', *, *, #48, .F. ) ;
#89 = COORDINATED_UNIVERSAL_TIME_OFFSET ( 5, 0, .BEHIND. ) ;
#90 = CALENDAR_DATE ( 2018, 19, 7 ) ;
#91 = FACE_OUTER_BOUND ( 'NONE', #44, .T. ) ;
#92 = CARTESIAN_POINT ( 'NONE',  ( -0.8596363832680253800, 1.220614474678271000, -0.4937592923385106800 ) ) ;
#93 = AXIS2_PLACEMENT_3D ( 'NONE', #115, #154, #52 ) ;
#94 = PERSON_AND_ORGANIZATION ( #98, #151 ) ;
#95 = ORIENTED_EDGE ( 'NONE', *, *, #112, .T. ) ;
#96 = CARTESIAN_POINT ( 'NONE',  ( -0.3675103990160568700, 1.220614474678271000, -0.2575388198975657700 ) ) ;
#97 = AXIS2_PLACEMENT_3D ( 'NONE', #275, #248, #102 ) ;
#98 = PERSON ( 'UNSPECIFIED', 'UNSPECIFIED', 'UNSPECIFIED', ('UNSPECIFIED'), ('UNSPECIFIED'), ('UNSPECIFIED') ) ;
#99 = VECTOR ( 'NONE', #173, 39.37007874015748100 ) ;
#100 = DIRECTION ( 'NONE',  ( 1.000000000000000000, 0.0000000000000000000, 0.0000000000000000000 ) ) ;
#101 = PRODUCT_DEFINITION_FORMATION_WITH_SPECIFIED_SOURCE ( 'ANY', '', #271, .NOT_KNOWN. ) ;
#102 = DIRECTION ( 'NONE',  ( -1.000000000000000000, 0.0000000000000000000, 0.0000000000000000000 ) ) ;
#103 = CARTESIAN_POINT ( 'NONE',  ( -1.344802655118419300, 1.220614474678271000, -0.2575388198975657700 ) ) ;
#104 = ORIENTED_EDGE ( 'NONE', *, *, #198, .T. ) ;
#105 =( CONVERSION_BASED_UNIT ( 'INCH', #87 ) LENGTH_UNIT ( ) NAMED_UNIT ( #245 ) );
#106 = CIRCLE ( 'NONE', #228, 0.4921259842519685200 ) ;
#107 = CONICAL_SURFACE ( 'NONE', #206, 0.4921259842519685200, 0.7853981633974531600 ) ;
#108 = ORIENTED_EDGE ( 'NONE', *, *, #46, .T. ) ;
#109 = DIRECTION ( 'NONE',  ( -0.0000000000000000000, -0.0000000000000000000, 1.000000000000000000 ) ) ;
#110 = EDGE_CURVE ( 'NONE', #227, #62, #253, .T. ) ;
#111 = CARTESIAN_POINT ( 'NONE',  ( -1.351762367519993900, 1.220614474678271000, -0.4867995799369360100 ) ) ;
#112 = EDGE_CURVE ( 'NONE', #227, #86, #9, .T. ) ;
#113 = DIRECTION ( 'NONE',  ( -0.0000000000000000000, -0.0000000000000000000, -1.000000000000000000 ) ) ;
#114 = DIRECTION ( 'NONE',  ( -1.000000000000000000, 0.0000000000000000000, 0.0000000000000000000 ) ) ;
#115 = CARTESIAN_POINT ( 'NONE',  ( -0.8596363832680253800, 1.220614474678271000, -0.4867995799369360100 ) ) ;
#116 = ORIENTED_EDGE ( 'NONE', *, *, #153, .F. ) ;
#117 = AXIS2_PLACEMENT_3D ( 'NONE', #84, #80, #164 ) ;
#118 = ADVANCED_FACE ( 'NONE', ( #247 ), #1, .T. ) ;
#119 = EDGE_CURVE ( 'NONE', #36, #205, #226, .T. ) ;
#120 = PERSON_AND_ORGANIZATION ( #98, #151 ) ;
#121 = CARTESIAN_POINT ( 'NONE',  ( -0.8596363832680253800, 1.220614474678271000, -0.2644985322991403300 ) ) ;
#122 = COORDINATED_UNIVERSAL_TIME_OFFSET ( 5, 0, .BEHIND. ) ;
#123 = FACE_OUTER_BOUND ( 'NONE', #170, .T. ) ;
#124 = CARTESIAN_POINT ( 'NONE',  ( 0.0000000000000000000, 0.0000000000000000000, 0.0000000000000000000 ) ) ;
#125 = CLOSED_SHELL ( 'NONE', ( #158, #19, #277, #118, #204, #142, #37, #244 ) ) ;
#126 = APPROVAL_ROLE ( '' ) ;
#127 = EDGE_CURVE ( 'NONE', #36, #62, #161, .T. ) ;
#128 = PERSON_AND_ORGANIZATION ( #98, #151 ) ;
#129 = CIRCLE ( 'NONE', #117, 0.4921259842519685200 ) ;
#130 = CIRCLE ( 'NONE', #259, 0.4851662718503940700 ) ;
#131 = ORIENTED_EDGE ( 'NONE', *, *, #266, .F. ) ;
#132 = AXIS2_PLACEMENT_3D ( 'NONE', #92, #71, #137 ) ;
#133 = CC_DESIGN_DATE_AND_TIME_ASSIGNMENT ( #8, #252, ( #224 ) ) ;
#134 = DIRECTION ( 'NONE',  ( -0.7071067811865509000, 8.659560562354974800E-017, 0.7071067811865440200 ) ) ;
#135 = DIRECTION ( 'NONE',  ( 1.000000000000000000, 0.0000000000000000000, 0.0000000000000000000 ) ) ;
#136 = COORDINATED_UNIVERSAL_TIME_OFFSET ( 5, 0, .BEHIND. ) ;
#137 = DIRECTION ( 'NONE',  ( 1.000000000000000000, 0.0000000000000000000, 0.0000000000000000000 ) ) ;
#138 = CARTESIAN_POINT ( 'NONE',  ( -1.351762367519993900, 1.220614474678271000, -0.2575388198975657700 ) ) ;
#139 = PERSON_AND_ORGANIZATION ( #98, #151 ) ;
#140 = CARTESIAN_POINT ( 'NONE',  ( -1.351762367519993900, 1.220614474678271000, -0.2644985322991403300 ) ) ;
#141 = CARTESIAN_POINT ( 'NONE',  ( -0.8596363832680253800, 1.220614474678271000, -0.2575388198975657700 ) ) ;
#142 = ADVANCED_FACE ( 'NONE', ( #231 ), #267, .F. ) ;
#143 = ORIENTED_EDGE ( 'NONE', *, *, #215, .T. ) ;
#144 = CC_DESIGN_SECURITY_CLASSIFICATION ( #186, ( #101 ) ) ;
#145 = DIRECTION ( 'NONE',  ( 1.000000000000000000, 0.0000000000000000000, 0.0000000000000000000 ) ) ;
#146 = AXIS2_PLACEMENT_3D ( 'NONE', #160, #35, #268 ) ;
#147 = PERSON_AND_ORGANIZATION_ROLE ( 'creator' ) ;
#148 = EDGE_LOOP ( 'NONE', ( #264, #222, #276, #5 ) ) ;
#149 = FACE_OUTER_BOUND ( 'NONE', #76, .T. ) ;
#150 = APPLICATION_CONTEXT ( 'configuration controlled 3d designs of mechanical parts and assemblies' ) ;
#151 = ORGANIZATION ( 'UNSPECIFIED', 'UNSPECIFIED', '' ) ;
#152 = LINE ( 'NONE', #138, #15 ) ;
#153 = EDGE_CURVE ( 'NONE', #205, #169, #152, .T. ) ;
#154 = DIRECTION ( 'NONE',  ( -0.0000000000000000000, -0.0000000000000000000, 1.000000000000000000 ) ) ;
#155 = VECTOR ( 'NONE', #32, 39.37007874015748100 ) ;
#156 = EDGE_LOOP ( 'NONE', ( #241, #143 ) ) ;
#157 = CC_DESIGN_PERSON_AND_ORGANIZATION_ASSIGNMENT ( #128, #251, ( #101 ) ) ;
#158 = ADVANCED_FACE ( 'NONE', ( #176 ), #208, .T. ) ;
#159 = CARTESIAN_POINT ( 'NONE',  ( -0.8596363832680253800, 1.220614474678271000, -0.2575388198975657700 ) ) ;
#160 = CARTESIAN_POINT ( 'NONE',  ( -0.8596363832680253800, 1.220614474678271000, -0.2575388198975657700 ) ) ;
#161 = LINE ( 'NONE', #96, #155 ) ;
#162 = DIRECTION ( 'NONE',  ( 0.0000000000000000000, 0.0000000000000000000, 1.000000000000000000 ) ) ;
#163 = DIRECTION ( 'NONE',  ( -1.000000000000000000, 0.0000000000000000000, 0.0000000000000000000 ) ) ;
#164 = DIRECTION ( 'NONE',  ( 1.000000000000000000, 0.0000000000000000000, 0.0000000000000000000 ) ) ;
#165 = LOCAL_TIME ( 9, 0, 44.00000000000000000, #89 ) ;
#166 = DESIGN_CONTEXT ( 'detailed design', #150, 'design' ) ;
#167 = APPLICATION_CONTEXT ( 'configuration controlled 3d designs of mechanical parts and assemblies' ) ;
#168 = CONICAL_SURFACE ( 'NONE', #63, 0.4921259842519685200, 0.7853981633974531600 ) ;
#169 = VERTEX_POINT ( 'NONE', #193 ) ;
#170 = EDGE_LOOP ( 'NONE', ( #26, #209, #2, #188 ) ) ;
#171 = AXIS2_PLACEMENT_3D ( 'NONE', #159, #162, #61 ) ;
#172 = ORIENTED_EDGE ( 'NONE', *, *, #20, .F. ) ;
#173 = DIRECTION ( 'NONE',  ( -0.7071067811865440200, 0.0000000000000000000, -0.7071067811865510100 ) ) ;
#174 = CALENDAR_DATE ( 2018, 19, 7 ) ;
#175 = PERSON_AND_ORGANIZATION ( #98, #151 ) ;
#176 = FACE_OUTER_BOUND ( 'NONE', #148, .T. ) ;
#177 = CARTESIAN_POINT ( 'NONE',  ( -0.3675103990160568700, 1.220614474678271000, -0.4867995799369360100 ) ) ;
#178 = DIRECTION ( 'NONE',  ( 0.0000000000000000000, 0.0000000000000000000, -1.000000000000000000 ) ) ;
#179 = AXIS2_PLACEMENT_3D ( 'NONE', #124, #83, #145 ) ;
#180 = EDGE_LOOP ( 'NONE', ( #95, #16 ) ) ;
#181 = APPROVAL ( #23, 'UNSPECIFIED' ) ;
#182 = LOCAL_TIME ( 9, 0, 44.00000000000000000, #73 ) ;
#183 = APPROVAL_DATE_TIME ( #33, #272 ) ;
#184 = LINE ( 'NONE', #111, #270 ) ;
#185 = APPROVAL_PERSON_ORGANIZATION ( #139, #181, #278 ) ;
#186 = SECURITY_CLASSIFICATION ( '', '', #210 ) ;
#187 = VECTOR ( 'NONE', #11, 39.37007874015748900 ) ;
#188 = ORIENTED_EDGE ( 'NONE', *, *, #119, .F. ) ;
#189 = CC_DESIGN_PERSON_AND_ORGANIZATION_ASSIGNMENT ( #72, #65, ( #186 ) ) ;
#190 = CARTESIAN_POINT ( 'NONE',  ( -0.8596363832680253800, 1.220614474678271000, -0.2575388198975657700 ) ) ;
#191 =( GEOMETRIC_REPRESENTATION_CONTEXT ( 3 ) GLOBAL_UNCERTAINTY_ASSIGNED_CONTEXT ( ( #200 ) ) GLOBAL_UNIT_ASSIGNED_CONTEXT ( ( #105, #274, #82 ) ) REPRESENTATION_CONTEXT ( 'NONE', 'WORKASPACE' ) );
#192 = CYLINDRICAL_SURFACE ( 'NONE', #220, 0.4921259842519684100 ) ;
#193 = CARTESIAN_POINT ( 'NONE',  ( -1.351762367519993900, 1.220614474678271000, -0.4867995799369360100 ) ) ;
#194 = SHAPE_DEFINITION_REPRESENTATION ( #54, #255 ) ;
#195 = DIRECTION ( 'NONE',  ( -0.0000000000000000000, -0.0000000000000000000, -1.000000000000000000 ) ) ;
#196 = CIRCLE ( 'NONE', #93, 0.4921259842519685200 ) ;
#197 = CARTESIAN_POINT ( 'NONE',  ( -0.3744701114176313100, 1.220614474678271000, -0.2575388198975657700 ) ) ;
#198 = EDGE_CURVE ( 'NONE', #205, #36, #106, .T. ) ;
#199 =( LENGTH_UNIT ( ) NAMED_UNIT ( * ) SI_UNIT ( $, .METRE. ) );
#200 = UNCERTAINTY_MEASURE_WITH_UNIT (LENGTH_MEASURE( 1.000000000000000100E-005 ), #105, 'distance_accuracy_value', 'NONE');
#201 = CC_DESIGN_APPROVAL ( #181, ( #224 ) ) ;
#202 = APPLICATION_PROTOCOL_DEFINITION ( 'international standard', 'config_control_design', 1994, #167 ) ;
#203 = FACE_OUTER_BOUND ( 'NONE', #156, .T. ) ;
#204 = ADVANCED_FACE ( 'NONE', ( #203 ), #12, .T. ) ;
#205 = VERTEX_POINT ( 'NONE', #140 ) ;
#206 = AXIS2_PLACEMENT_3D ( 'NONE', #30, #109, #135 ) ;
#207 = APPLICATION_PROTOCOL_DEFINITION ( 'international standard', 'config_control_design', 1994, #150 ) ;
#208 = CONICAL_SURFACE ( 'NONE', #212, 0.4851662718503939600, 0.7853981633974433900 ) ;
#209 = ORIENTED_EDGE ( 'NONE', *, *, #64, .F. ) ;
#210 = SECURITY_CLASSIFICATION_LEVEL ( 'unclassified' ) ;
#211 = VERTEX_POINT ( 'NONE', #197 ) ;
#212 = AXIS2_PLACEMENT_3D ( 'NONE', #190, #178, #75 ) ;
#213 = EDGE_LOOP ( 'NONE', ( #81, #242, #57, #254 ) ) ;
#214 = AXIS2_PLACEMENT_3D ( 'NONE', #77, #38, #263 ) ;
#215 = EDGE_CURVE ( 'NONE', #211, #258, #130, .T. ) ;
#216 = APPROVAL_PERSON_ORGANIZATION ( #45, #272, #126 ) ;
#217 = DIRECTION ( 'NONE',  ( 1.000000000000000000, 0.0000000000000000000, -0.0000000000000000000 ) ) ;
#218 = ORIENTED_EDGE ( 'NONE', *, *, #127, .T. ) ;
#219 = DIRECTION ( 'NONE',  ( 1.000000000000000000, 0.0000000000000000000, 0.0000000000000000000 ) ) ;
#220 = AXIS2_PLACEMENT_3D ( 'NONE', #58, #195, #163 ) ;
#221 = CARTESIAN_POINT ( 'NONE',  ( -0.3675103990160568700, 1.220614474678271000, -0.4867995799369360100 ) ) ;
#222 = ORIENTED_EDGE ( 'NONE', *, *, #49, .T. ) ;
#223 = CC_DESIGN_PERSON_AND_ORGANIZATION_ASSIGNMENT ( #94, #78, ( #271 ) ) ;
#224 = PRODUCT_DEFINITION ( 'UNKNOWN', '', #101, #166 ) ;
#225 = MECHANICAL_CONTEXT ( 'NONE', #167, 'mechanical' ) ;
#226 = CIRCLE ( 'NONE', #214, 0.4921259842519685200 ) ;
#227 = VERTEX_POINT ( 'NONE', #17 ) ;
#228 = AXIS2_PLACEMENT_3D ( 'NONE', #121, #273, #14 ) ;
#229 = APPROVAL_STATUS ( 'not_yet_approved' ) ;
#230 = CALENDAR_DATE ( 2018, 19, 7 ) ;
#231 = FACE_OUTER_BOUND ( 'NONE', #180, .T. ) ;
#232 = DATE_AND_TIME ( #230, #182 ) ;
#233 = EDGE_LOOP ( 'NONE', ( #104, #218, #265, #116 ) ) ;
#234 = APPROVAL ( #229, 'UNSPECIFIED' ) ;
#235 = CARTESIAN_POINT ( 'NONE',  ( -0.8596363832680253800, 1.220614474678271000, -0.4867995799369360100 ) ) ;
#236 = LINE ( 'NONE', #7, #99 ) ;
#237 = ORIENTED_EDGE ( 'NONE', *, *, #110, .F. ) ;
#238 = CC_DESIGN_APPROVAL ( #234, ( #101 ) ) ;
#239 = DATE_AND_TIME ( #4, #59 ) ;
#240 = DIRECTION ( 'NONE',  ( -0.0000000000000000000, -0.0000000000000000000, -1.000000000000000000 ) ) ;
#241 = ORIENTED_EDGE ( 'NONE', *, *, #64, .T. ) ;
#242 = ORIENTED_EDGE ( 'NONE', *, *, #119, .T. ) ;
#243 = CARTESIAN_POINT ( 'NONE',  ( -0.3744701114176313100, 1.220614474678271000, -0.2575388198975657700 ) ) ;
#244 = ADVANCED_FACE ( 'NONE', ( #123 ), #28, .T. ) ;
#245 = DIMENSIONAL_EXPONENTS ( 1.000000000000000000, 0.0000000000000000000, 0.0000000000000000000, 0.0000000000000000000, 0.0000000000000000000, 0.0000000000000000000, 0.0000000000000000000 ) ;
#246 = APPROVAL_DATE_TIME ( #232, #181 ) ;
#247 = FACE_OUTER_BOUND ( 'NONE', #213, .T. ) ;
#248 = DIRECTION ( 'NONE',  ( 0.0000000000000000000, 0.0000000000000000000, -1.000000000000000000 ) ) ;
#249 = CALENDAR_DATE ( 2018, 19, 7 ) ;
#250 = CIRCLE ( 'NONE', #132, 0.4851662718503937900 ) ;
#251 = PERSON_AND_ORGANIZATION_ROLE ( 'creator' ) ;
#252 = DATE_TIME_ROLE ( 'creation_date' ) ;
#253 = LINE ( 'NONE', #221, #187 ) ;
#254 = ORIENTED_EDGE ( 'NONE', *, *, #266, .T. ) ;
#255 = ADVANCED_BREP_SHAPE_REPRESENTATION ( '+25mm High Energy Laser Line Polarizer_86707', ( #42, #179 ), #191 ) ;
#256 = DATE_AND_TIME ( #174, #79 ) ;
#257 = LINE ( 'NONE', #243, #68 ) ;
#258 = VERTEX_POINT ( 'NONE', #103 ) ;
#259 = AXIS2_PLACEMENT_3D ( 'NONE', #18, #60, #100 ) ;
#260 = DIRECTION ( 'NONE',  ( 1.000000000000000000, 0.0000000000000000000, 0.0000000000000000000 ) ) ;
#261 = DIRECTION ( 'NONE',  ( 0.7071067811865440200, 8.659560562354888500E-017, -0.7071067811865510100 ) ) ;
#262 = APPROVAL_PERSON_ORGANIZATION ( #34, #234, #21 ) ;
#263 = DIRECTION ( 'NONE',  ( 1.000000000000000000, 0.0000000000000000000, 0.0000000000000000000 ) ) ;
#264 = ORIENTED_EDGE ( 'NONE', *, *, #215, .F. ) ;
#265 = ORIENTED_EDGE ( 'NONE', *, *, #48, .T. ) ;
#266 = EDGE_CURVE ( 'NONE', #169, #62, #129, .T. ) ;
#267 = PLANE ( 'NONE',  #22 ) ;
#268 = DIRECTION ( 'NONE',  ( 1.000000000000000000, 0.0000000000000000000, 0.0000000000000000000 ) ) ;
#269 = AXIS2_PLACEMENT_3D ( 'NONE', #53, #240, #219 ) ;
#270 = VECTOR ( 'NONE', #134, 39.37007874015748900 ) ;
#271 = PRODUCT ( 'Ø25mm High Energy Laser Line Polarizer_86707', 'Ø25mm High Energy Laser Line Polarizer_86707', '', ( #225 ) ) ;
#272 = APPROVAL ( #43, 'UNSPECIFIED' ) ;
#273 = DIRECTION ( 'NONE',  ( 0.0000000000000000000, 0.0000000000000000000, -1.000000000000000000 ) ) ;
#274 =( NAMED_UNIT ( * ) PLANE_ANGLE_UNIT ( ) SI_UNIT ( $, .RADIAN. ) );
#275 = CARTESIAN_POINT ( 'NONE',  ( -0.8596363832680253800, 1.220614474678271000, -0.2575388198975657700 ) ) ;
#276 = ORIENTED_EDGE ( 'NONE', *, *, #198, .F. ) ;
#277 = ADVANCED_FACE ( 'NONE', ( #56 ), #192, .T. ) ;
#278 = APPROVAL_ROLE ( '' ) ;
ENDSEC;
END-ISO-10303-21;
