ISO-10303-21;
HEADER;
FILE_DESCRIPTION (( 'STEP AP203' ),
    '1' );
FILE_NAME ('4931-E0W.STEP',
    '2015-07-13T15:21:03',
    ( 'admin' ),
    ( '' ),
    'SwSTEP 2.0',
    'SolidWorks 2014',
    '' );
FILE_SCHEMA (( 'CONFIG_CONTROL_DESIGN' ));
ENDSEC;

DATA;
#1 = APPROVAL_STATUS ( 'not_yet_approved' ) ;
#2 = ORIENTED_EDGE ( 'NONE', *, *, #49, .T. ) ;
#3 = APPROVAL_DATE_TIME ( #326, #98 ) ;
#4 = DIRECTION ( 'NONE',  ( 1.000000000000000000, 0.0000000000000000000, 0.0000000000000000000 ) ) ;
#5 = DIRECTION ( 'NONE',  ( -1.000000000000000000, 0.0000000000000000000, 0.0000000000000000000 ) ) ;
#6 = AXIS2_PLACEMENT_3D ( 'NONE', #200, #27, #229 ) ;
#7 = DIRECTION ( 'NONE',  ( 1.000000000000000000, 0.0000000000000000000, 0.0000000000000000000 ) ) ;
#8 = LINE ( 'NONE', #26, #189 ) ;
#9 = VERTEX_POINT ( 'NONE', #224 ) ;
#10 = EDGE_CURVE ( 'NONE', #362, #207, #23, .T. ) ;
#11 = FACE_OUTER_BOUND ( 'NONE', #130, .T. ) ;
#12 = EDGE_LOOP ( 'NONE', ( #309, #91, #272, #118 ) ) ;
#13 = DIRECTION ( 'NONE',  ( -0.0000000000000000000, -0.0000000000000000000, 1.000000000000000000 ) ) ;
#14 = PRODUCT ( '4931-E0W', '4931-E0W', '', ( #339 ) ) ;
#15 = CIRCLE ( 'NONE', #293, 80.90000000000000600 ) ;
#16 = ORIENTED_EDGE ( 'NONE', *, *, #37, .F. ) ;
#17 = CYLINDRICAL_SURFACE ( 'NONE', #222, 25.39999999999999900 ) ;
#18 = DIRECTION ( 'NONE',  ( -0.0000000000000000000, -0.0000000000000000000, 1.000000000000000000 ) ) ;
#19 = CC_DESIGN_PERSON_AND_ORGANIZATION_ASSIGNMENT ( #303, #308, ( #306 ) ) ;
#20 = DIRECTION ( 'NONE',  ( -0.0000000000000000000, -0.0000000000000000000, 1.000000000000000000 ) ) ;
#21 = COORDINATED_UNIVERSAL_TIME_OFFSET ( 5, 0, .BEHIND. ) ;
#22 = DIRECTION ( 'NONE',  ( -1.224646799147353200E-016, -1.000000000000000000, 0.0000000000000000000 ) ) ;
#23 = CIRCLE ( 'NONE', #93, 25.26157823223849900 ) ;
#24 = CARTESIAN_POINT ( 'NONE',  ( -25.26157823223849900, 0.0000000000000000000, -6.211625593828737900 ) ) ;
#25 = AXIS2_PLACEMENT_3D ( 'NONE', #287, #276, #83 ) ;
#26 = CARTESIAN_POINT ( 'NONE',  ( 25.26157823223851300, 3.093651092352135000E-015, -6.211625593828741500 ) ) ;
#27 = DIRECTION ( 'NONE',  ( 0.0000000000000000000, 0.0000000000000000000, -1.000000000000000000 ) ) ;
#28 =( NAMED_UNIT ( * ) PLANE_ANGLE_UNIT ( ) SI_UNIT ( $, .RADIAN. ) );
#29 = ADVANCED_FACE ( 'NONE', ( #240 ), #92, .F. ) ;
#30 = APPROVAL_STATUS ( 'not_yet_approved' ) ;
#31 = APPROVAL_PERSON_ORGANIZATION ( #122, #238, #232 ) ;
#32 = EDGE_CURVE ( 'NONE', #155, #74, #54, .T. ) ;
#33 = DIRECTION ( 'NONE',  ( 0.8105454526297183300, 0.0000000000000000000, 0.5856757372653276200 ) ) ;
#34 = CONICAL_SURFACE ( 'NONE', #162, 25.26157823223851300, 0.2957857254198769100 ) ;
#35 = ORIENTED_EDGE ( 'NONE', *, *, #225, .F. ) ;
#36 = VERTEX_POINT ( 'NONE', #294 ) ;
#37 = EDGE_CURVE ( 'NONE', #165, #137, #60, .T. ) ;
#38 = CARTESIAN_POINT ( 'NONE',  ( 0.0000000000000000000, -25.16225445199408700, -7.593069314651359900 ) ) ;
#39 = SECURITY_CLASSIFICATION ( '', '', #146 ) ;
#40 = EDGE_LOOP ( 'NONE', ( #214, #107, #45, #296 ) ) ;
#41 = ORIENTED_EDGE ( 'NONE', *, *, #170, .F. ) ;
#42 = VERTEX_POINT ( 'NONE', #228 ) ;
#43 = EDGE_LOOP ( 'NONE', ( #108, #75, #289, #267, #102 ) ) ;
#44 = AXIS2_PLACEMENT_3D ( 'NONE', #245, #76, #270 ) ;
#45 = ORIENTED_EDGE ( 'NONE', *, *, #37, .T. ) ;
#46 = CARTESIAN_POINT ( 'NONE',  ( -25.39999999999999900, 3.110602869834276900E-015, -7.421281540556584000 ) ) ;
#47 = CARTESIAN_POINT ( 'NONE',  ( 0.0000000000000000000, 25.26157823223850600, -6.211625593828737900 ) ) ;
#48 = DATE_AND_TIME ( #336, #329 ) ;
#49 = EDGE_CURVE ( 'NONE', #330, #268, #95, .T. ) ;
#50 = EDGE_CURVE ( 'NONE', #165, #268, #192, .T. ) ;
#51 = DIRECTION ( 'NONE',  ( -1.000000000000000000, 0.0000000000000000000, 0.0000000000000000000 ) ) ;
#52 = DIRECTION ( 'NONE',  ( 1.000000000000000000, -1.224646799147353200E-016, 0.0000000000000000000 ) ) ;
#53 = DIRECTION ( 'NONE',  ( 0.0000000000000000000, 0.0000000000000000000, -1.000000000000000000 ) ) ;
#54 = CIRCLE ( 'NONE', #106, 25.26157823223849900 ) ;
#55 = ADVANCED_FACE ( 'NONE', ( #84 ), #17, .T. ) ;
#56 = FACE_OUTER_BOUND ( 'NONE', #43, .T. ) ;
#57 = DIRECTION ( 'NONE',  ( -0.2914915440650858200, 0.0000000000000000000, -0.9565734053059137300 ) ) ;
#58 = CC_DESIGN_PERSON_AND_ORGANIZATION_ASSIGNMENT ( #360, #341, ( #39 ) ) ;
#59 = PERSON_AND_ORGANIZATION_ROLE ( 'creator' ) ;
#60 = CIRCLE ( 'NONE', #151, 25.16225445199409100 ) ;
#61 = PERSON_AND_ORGANIZATION ( #327, #195 ) ;
#62 = ORIENTED_EDGE ( 'NONE', *, *, #318, .T. ) ;
#63 = DIRECTION ( 'NONE',  ( 0.0000000000000000000, 0.0000000000000000000, -1.000000000000000000 ) ) ;
#64 = AXIS2_PLACEMENT_3D ( 'NONE', #143, #88, #338 ) ;
#65 = CARTESIAN_POINT ( 'NONE',  ( -3.093651092352133800E-015, -25.26157823223850600, -6.211625593828737900 ) ) ;
#66 = PERSON_AND_ORGANIZATION ( #327, #195 ) ;
#67 = CIRCLE ( 'NONE', #275, 25.16225445199409100 ) ;
#68 = LINE ( 'NONE', #227, #115 ) ;
#69 = DIRECTION ( 'NONE',  ( 1.000000000000000000, 0.0000000000000000000, 0.0000000000000000000 ) ) ;
#70 = EDGE_LOOP ( 'NONE', ( #242, #319, #352, #41 ) ) ;
#71 = EDGE_CURVE ( 'NONE', #310, #212, #156, .T. ) ;
#72 = EDGE_CURVE ( 'NONE', #36, #42, #161, .T. ) ;
#73 = MANIFOLD_SOLID_BREP ( '4931-001-1-solid1', #243 ) ;
#74 = VERTEX_POINT ( 'NONE', #152 ) ;
#75 = ORIENTED_EDGE ( 'NONE', *, *, #191, .T. ) ;
#76 = DIRECTION ( 'NONE',  ( 0.0000000000000000000, 0.0000000000000000000, -1.000000000000000000 ) ) ;
#77 = CC_DESIGN_DATE_AND_TIME_ASSIGNMENT ( #348, #177, ( #39 ) ) ;
#78 = DIRECTION ( 'NONE',  ( 0.0000000000000000000, 0.0000000000000000000, -1.000000000000000000 ) ) ;
#79 = DIRECTION ( 'NONE',  ( 1.000000000000000000, 0.0000000000000000000, 0.0000000000000000000 ) ) ;
#80 = LOCAL_TIME ( 11, 21, 3.000000000000000000, #21 ) ;
#81 = SPHERICAL_SURFACE ( 'NONE', #64, 30.60000000000000100 ) ;
#82 = COORDINATED_UNIVERSAL_TIME_OFFSET ( 5, 0, .BEHIND. ) ;
#83 = DIRECTION ( 'NONE',  ( 1.000000000000000000, 0.0000000000000000000, 0.0000000000000000000 ) ) ;
#84 = FACE_OUTER_BOUND ( 'NONE', #12, .T. ) ;
#85 = ORIENTED_EDGE ( 'NONE', *, *, #71, .F. ) ;
#86 = AXIS2_PLACEMENT_3D ( 'NONE', #366, #18, #163 ) ;
#87 = CARTESIAN_POINT ( 'NONE',  ( -25.39999999999999900, 3.110602869834276900E-015, -6.665877473349828700 ) ) ;
#88 = DIRECTION ( 'NONE',  ( -1.000000000000000000, 0.0000000000000000000, 0.0000000000000000000 ) ) ;
#89 = APPROVAL_STATUS ( 'not_yet_approved' ) ;
#90 = APPROVAL_DATE_TIME ( #48, #238 ) ;
#91 = ORIENTED_EDGE ( 'NONE', *, *, #211, .T. ) ;
#92 = SPHERICAL_SURFACE ( 'NONE', #127, 80.90000000000000600 ) ;
#93 = AXIS2_PLACEMENT_3D ( 'NONE', #167, #196, #51 ) ;
#94 = EDGE_CURVE ( 'NONE', #268, #330, #176, .T. ) ;
#95 = CIRCLE ( 'NONE', #166, 25.39999999999999900 ) ;
#96 = ORIENTED_EDGE ( 'NONE', *, *, #334, .T. ) ;
#97 = FACE_OUTER_BOUND ( 'NONE', #265, .T. ) ;
#98 = APPROVAL ( #1, 'UNSPECIFIED' ) ;
#99 = ORIENTED_EDGE ( 'NONE', *, *, #110, .T. ) ;
#100 = FACE_OUTER_BOUND ( 'NONE', #125, .T. ) ;
#101 = DIRECTION ( 'NONE',  ( -1.000000000000000000, 0.0000000000000000000, 0.0000000000000000000 ) ) ;
#102 = ORIENTED_EDGE ( 'NONE', *, *, #10, .F. ) ;
#103 = AXIS2_PLACEMENT_3D ( 'NONE', #193, #20, #221 ) ;
#104 = FACE_OUTER_BOUND ( 'NONE', #273, .T. ) ;
#105 = DIRECTION ( 'NONE',  ( -0.0000000000000000000, -0.0000000000000000000, 1.000000000000000000 ) ) ;
#106 = AXIS2_PLACEMENT_3D ( 'NONE', #350, #13, #101 ) ;
#107 = ORIENTED_EDGE ( 'NONE', *, *, #225, .T. ) ;
#108 = ORIENTED_EDGE ( 'NONE', *, *, #298, .F. ) ;
#109 = LINE ( 'NONE', #249, #114 ) ;
#110 = EDGE_CURVE ( 'NONE', #36, #330, #169, .T. ) ;
#111 = DIRECTION ( 'NONE',  ( -0.0000000000000000000, -0.0000000000000000000, 1.000000000000000000 ) ) ;
#112 = CARTESIAN_POINT ( 'NONE',  ( 0.0000000000000000000, 0.0000000000000000000, 0.0000000000000000000 ) ) ;
#113 = ADVANCED_FACE ( 'NONE', ( #104 ), #226, .T. ) ;
#114 = VECTOR ( 'NONE', #57, 1000.000000000000200 ) ;
#115 = VECTOR ( 'NONE', #111, 1000.000000000000000 ) ;
#116 = CC_DESIGN_APPROVAL ( #98, ( #39 ) ) ;
#117 = PERSON_AND_ORGANIZATION_ROLE ( 'creator' ) ;
#118 = ORIENTED_EDGE ( 'NONE', *, *, #260, .F. ) ;
#119 = CARTESIAN_POINT ( 'NONE',  ( -25.39999999999999900, 3.110602869834276900E-015, -7.421281540556584000 ) ) ;
#120 = AXIS2_PLACEMENT_3D ( 'NONE', #271, #105, #300 ) ;
#121 = CARTESIAN_POINT ( 'NONE',  ( 0.0000000000000000000, 0.0000000000000000000, -7.593069314651365300 ) ) ;
#122 = PERSON_AND_ORGANIZATION ( #327, #195 ) ;
#123 = ORIENTED_EDGE ( 'NONE', *, *, #244, .T. ) ;
#124 = DATE_AND_TIME ( #314, #80 ) ;
#125 = EDGE_LOOP ( 'NONE', ( #168, #2, #187, #179 ) ) ;
#126 = EDGE_LOOP ( 'NONE', ( #321, #252, #16, #256, #305 ) ) ;
#127 = AXIS2_PLACEMENT_3D ( 'NONE', #239, #69, #128 ) ;
#128 = DIRECTION ( 'NONE',  ( 0.0000000000000000000, -1.000000000000000000, 0.0000000000000000000 ) ) ;
#129 = EDGE_CURVE ( 'NONE', #137, #36, #67, .T. ) ;
#130 = EDGE_LOOP ( 'NONE', ( #218, #62, #96, #344 ) ) ;
#131 = CIRCLE ( 'NONE', #332, 80.90000000000000600 ) ;
#132 = DIRECTION ( 'NONE',  ( -1.000000000000000000, 0.0000000000000000000, 0.0000000000000000000 ) ) ;
#133 = CC_DESIGN_SECURITY_CLASSIFICATION ( #39, ( #306 ) ) ;
#134 = CARTESIAN_POINT ( 'NONE',  ( 0.0000000000000000000, 0.0000000000000000000, -6.211625593828741500 ) ) ;
#135 = DIRECTION ( 'NONE',  ( 1.000000000000000000, 0.0000000000000000000, 0.0000000000000000000 ) ) ;
#136 = ORIENTED_EDGE ( 'NONE', *, *, #32, .T. ) ;
#137 = VERTEX_POINT ( 'NONE', #38 ) ;
#138 = CARTESIAN_POINT ( 'NONE',  ( 0.0000000000000000000, 0.0000000000000000000, -84.48046067951108300 ) ) ;
#139 = AXIS2_PLACEMENT_3D ( 'NONE', #358, #194, #22 ) ;
#140 = CIRCLE ( 'NONE', #6, 25.16225445199409100 ) ;
#141 = CONICAL_SURFACE ( 'NONE', #353, 25.26157823223851300, 0.2957857254198769100 ) ;
#142 = ADVANCED_FACE ( 'NONE', ( #11 ), #186, .T. ) ;
#143 = CARTESIAN_POINT ( 'NONE',  ( 0.0000000000000000000, 0.0000000000000000000, -23.48046067951108300 ) ) ;
#144 = DIRECTION ( 'NONE',  ( 1.000000000000000000, 0.0000000000000000000, 0.0000000000000000000 ) ) ;
#145 = UNCERTAINTY_MEASURE_WITH_UNIT (LENGTH_MEASURE( 1.000000000000000100E-005 ), #201, 'distance_accuracy_value', 'NONE');
#146 = SECURITY_CLASSIFICATION_LEVEL ( 'unclassified' ) ;
#147 = ORIENTED_EDGE ( 'NONE', *, *, #32, .F. ) ;
#148 = CYLINDRICAL_SURFACE ( 'NONE', #25, 25.39999999999999900 ) ;
#149 = LOCAL_TIME ( 11, 21, 3.000000000000000000, #236 ) ;
#150 = CARTESIAN_POINT ( 'NONE',  ( 25.39999999999999900, 0.0000000000000000000, -7.421281540556584000 ) ) ;
#151 = AXIS2_PLACEMENT_3D ( 'NONE', #331, #299, #197 ) ;
#152 = CARTESIAN_POINT ( 'NONE',  ( 25.26157823223849900, 3.102126981093205300E-015, -6.211625593828737900 ) ) ;
#153 = DIRECTION ( 'NONE',  ( -0.0000000000000000000, -0.0000000000000000000, 1.000000000000000000 ) ) ;
#154 = EDGE_CURVE ( 'NONE', #42, #264, #15, .T. ) ;
#155 = VERTEX_POINT ( 'NONE', #65 ) ;
#156 = CIRCLE ( 'NONE', #209, 25.39999999999999900 ) ;
#157 = DIRECTION ( 'NONE',  ( -1.000000000000000000, 0.0000000000000000000, 0.0000000000000000000 ) ) ;
#158 = PRODUCT_RELATED_PRODUCT_CATEGORY ( 'detail', '', ( #14 ) ) ;
#159 = VECTOR ( 'NONE', #210, 999.9999999999998900 ) ;
#160 = CALENDAR_DATE ( 2015, 13, 7 ) ;
#161 = CIRCLE ( 'NONE', #190, 25.16225445199409100 ) ;
#162 = AXIS2_PLACEMENT_3D ( 'NONE', #134, #78, #132 ) ;
#163 = DIRECTION ( 'NONE',  ( 1.000000000000000000, 0.0000000000000000000, 0.0000000000000000000 ) ) ;
#164 = CARTESIAN_POINT ( 'NONE',  ( 25.39999999999999900, 0.0000000000000000000, -6.665877473349828700 ) ) ;
#165 = VERTEX_POINT ( 'NONE', #361 ) ;
#166 = AXIS2_PLACEMENT_3D ( 'NONE', #343, #178, #4 ) ;
#167 = CARTESIAN_POINT ( 'NONE',  ( 0.0000000000000000000, 0.0000000000000000000, -6.211625593828737900 ) ) ;
#168 = ORIENTED_EDGE ( 'NONE', *, *, #211, .F. ) ;
#169 = LINE ( 'NONE', #119, #159 ) ;
#170 = EDGE_CURVE ( 'NONE', #137, #264, #131, .T. ) ;
#171 = DIRECTION ( 'NONE',  ( 0.0000000000000000000, 0.0000000000000000000, 1.000000000000000000 ) ) ;
#172 = ADVANCED_FACE ( 'NONE', ( #100 ), #148, .T. ) ;
#173 = DIRECTION ( 'NONE',  ( -0.0000000000000000000, -0.0000000000000000000, 1.000000000000000000 ) ) ;
#174 = PERSON_AND_ORGANIZATION_ROLE ( 'design_owner' ) ;
#175 = ORIENTED_EDGE ( 'NONE', *, *, #72, .F. ) ;
#176 = CIRCLE ( 'NONE', #241, 25.39999999999999900 ) ;
#177 = DATE_TIME_ROLE ( 'classification_date' ) ;
#178 = DIRECTION ( 'NONE',  ( -0.0000000000000000000, -0.0000000000000000000, 1.000000000000000000 ) ) ;
#179 = ORIENTED_EDGE ( 'NONE', *, *, #71, .T. ) ;
#180 = DIRECTION ( 'NONE',  ( 0.0000000000000000000, 0.0000000000000000000, -1.000000000000000000 ) ) ;
#181 = COORDINATED_UNIVERSAL_TIME_OFFSET ( 5, 0, .BEHIND. ) ;
#182 = DIRECTION ( 'NONE',  ( -0.0000000000000000000, -0.0000000000000000000, 1.000000000000000000 ) ) ;
#183 = AXIS2_PLACEMENT_3D ( 'NONE', #302, #135, #328 ) ;
#184 = DIRECTION ( 'NONE',  ( 0.0000000000000000000, 1.000000000000000000, 0.0000000000000000000 ) ) ;
#185 = AXIS2_PLACEMENT_3D ( 'NONE', #112, #307, #144 ) ;
#186 = SPHERICAL_SURFACE ( 'NONE', #315, 30.60000000000000100 ) ;
#187 = ORIENTED_EDGE ( 'NONE', *, *, #260, .T. ) ;
#188 = VECTOR ( 'NONE', #173, 1000.000000000000000 ) ;
#189 = VECTOR ( 'NONE', #198, 1000.000000000000200 ) ;
#190 = AXIS2_PLACEMENT_3D ( 'NONE', #234, #63, #258 ) ;
#191 = EDGE_CURVE ( 'NONE', #74, #310, #8, .T. ) ;
#192 = LINE ( 'NONE', #150, #203 ) ;
#193 = CARTESIAN_POINT ( 'NONE',  ( 0.0000000000000000000, 0.0000000000000000000, -6.211625593828737900 ) ) ;
#194 = DIRECTION ( 'NONE',  ( -1.000000000000000000, 1.224646799147353200E-016, 0.0000000000000000000 ) ) ;
#195 = ORGANIZATION ( 'UNSPECIFIED', 'UNSPECIFIED', '' ) ;
#196 = DIRECTION ( 'NONE',  ( -0.0000000000000000000, -0.0000000000000000000, 1.000000000000000000 ) ) ;
#197 = DIRECTION ( 'NONE',  ( -1.000000000000000000, 0.0000000000000000000, 0.0000000000000000000 ) ) ;
#198 = DIRECTION ( 'NONE',  ( 0.2914915440650858200, 3.569741864178269500E-017, -0.9565734053059137300 ) ) ;
#199 = CC_DESIGN_PERSON_AND_ORGANIZATION_ASSIGNMENT ( #61, #174, ( #14 ) ) ;
#200 = CARTESIAN_POINT ( 'NONE',  ( 0.0000000000000000000, 0.0000000000000000000, -7.593069314651365300 ) ) ;
#201 =( LENGTH_UNIT ( ) NAMED_UNIT ( * ) SI_UNIT ( .MILLI., .METRE. ) );
#202 = PERSON_AND_ORGANIZATION ( #327, #195 ) ;
#203 = VECTOR ( 'NONE', #33, 999.9999999999998900 ) ;
#204 = APPLICATION_PROTOCOL_DEFINITION ( 'international standard', 'config_control_design', 1994, #367 ) ;
#205 = APPROVAL_ROLE ( '' ) ;
#206 = CIRCLE ( 'NONE', #103, 25.26157823223849900 ) ;
#207 = VERTEX_POINT ( 'NONE', #24 ) ;
#208 = DIRECTION ( 'NONE',  ( -0.0000000000000000000, -0.0000000000000000000, 1.000000000000000000 ) ) ;
#209 = AXIS2_PLACEMENT_3D ( 'NONE', #345, #180, #5 ) ;
#210 = DIRECTION ( 'NONE',  ( -0.8105454526297183300, 9.926318941264273100E-017, 0.5856757372653276200 ) ) ;
#211 = EDGE_CURVE ( 'NONE', #330, #212, #68, .T. ) ;
#212 = VERTEX_POINT ( 'NONE', #87 ) ;
#213 = APPROVAL_PERSON_ORGANIZATION ( #66, #98, #205 ) ;
#214 = ORIENTED_EDGE ( 'NONE', *, *, #154, .F. ) ;
#215 = SHAPE_DEFINITION_REPRESENTATION ( #292, #261 ) ;
#216 = LINE ( 'NONE', #281, #188 ) ;
#217 = AXIS2_PLACEMENT_3D ( 'NONE', #220, #79, #359 ) ;
#218 = ORIENTED_EDGE ( 'NONE', *, *, #10, .T. ) ;
#219 = PRODUCT_DEFINITION ( 'UNKNOWN', '', #306, #354 ) ;
#220 = CARTESIAN_POINT ( 'NONE',  ( 0.0000000000000000000, 0.0000000000000000000, -84.48046067951108300 ) ) ;
#221 = DIRECTION ( 'NONE',  ( -1.000000000000000000, 0.0000000000000000000, 0.0000000000000000000 ) ) ;
#222 = AXIS2_PLACEMENT_3D ( 'NONE', #263, #208, #233 ) ;
#223 = CARTESIAN_POINT ( 'NONE',  ( 0.0000000000000000000, 0.0000000000000000000, -84.48046067951108300 ) ) ;
#224 = CARTESIAN_POINT ( 'NONE',  ( 0.0000000000000000000, 1.873709602695450400E-015, 7.119539320488917700 ) ) ;
#225 = EDGE_CURVE ( 'NONE', #42, #165, #140, .T. ) ;
#226 = CONICAL_SURFACE ( 'NONE', #257, 25.39999999999999900, 0.9450828377510932500 ) ;
#227 = CARTESIAN_POINT ( 'NONE',  ( -25.39999999999999900, 3.110602869834276900E-015, 7.119539320488916800 ) ) ;
#228 = CARTESIAN_POINT ( 'NONE',  ( 3.081487437396579500E-015, 25.16225445199408700, -7.593069314651359900 ) ) ;
#229 = DIRECTION ( 'NONE',  ( -1.000000000000000000, 0.0000000000000000000, 0.0000000000000000000 ) ) ;
#230 =( NAMED_UNIT ( * ) SI_UNIT ( $, .STERADIAN. ) SOLID_ANGLE_UNIT ( ) );
#231 = ADVANCED_FACE ( 'NONE', ( #56 ), #141, .T. ) ;
#232 = APPROVAL_ROLE ( '' ) ;
#233 = DIRECTION ( 'NONE',  ( 1.000000000000000000, 0.0000000000000000000, 0.0000000000000000000 ) ) ;
#234 = CARTESIAN_POINT ( 'NONE',  ( 0.0000000000000000000, 0.0000000000000000000, -7.593069314651365300 ) ) ;
#235 = ORIENTED_EDGE ( 'NONE', *, *, #318, .F. ) ;
#236 = COORDINATED_UNIVERSAL_TIME_OFFSET ( 5, 0, .BEHIND. ) ;
#237 =( GEOMETRIC_REPRESENTATION_CONTEXT ( 3 ) GLOBAL_UNCERTAINTY_ASSIGNED_CONTEXT ( ( #145 ) ) GLOBAL_UNIT_ASSIGNED_CONTEXT ( ( #201, #28, #230 ) ) REPRESENTATION_CONTEXT ( 'NONE', 'WORKASPACE' ) );
#238 = APPROVAL ( #30, 'UNSPECIFIED' ) ;
#239 = CARTESIAN_POINT ( 'NONE',  ( 0.0000000000000000000, 0.0000000000000000000, -84.48046067951108300 ) ) ;
#240 = FACE_OUTER_BOUND ( 'NONE', #70, .T. ) ;
#241 = AXIS2_PLACEMENT_3D ( 'NONE', #316, #153, #346 ) ;
#242 = ORIENTED_EDGE ( 'NONE', *, *, #129, .T. ) ;
#243 = CLOSED_SHELL ( 'NONE', ( #231, #113, #29, #55, #142, #251, #172, #365, #280, #340 ) ) ;
#244 = EDGE_CURVE ( 'NONE', #207, #212, #109, .T. ) ;
#245 = CARTESIAN_POINT ( 'NONE',  ( 0.0000000000000000000, 0.0000000000000000000, -6.665877473349828700 ) ) ;
#246 = ORIENTED_EDGE ( 'NONE', *, *, #298, .T. ) ;
#247 = DIRECTION ( 'NONE',  ( 1.224646799147353000E-016, 1.000000000000000000, 0.0000000000000000000 ) ) ;
#248 = CC_DESIGN_APPROVAL ( #238, ( #219 ) ) ;
#249 = CARTESIAN_POINT ( 'NONE',  ( -25.26157823223851300, 0.0000000000000000000, -6.211625593828741500 ) ) ;
#250 = APPLICATION_PROTOCOL_DEFINITION ( 'international standard', 'config_control_design', 1994, #282 ) ;
#251 = ADVANCED_FACE ( 'NONE', ( #97 ), #81, .T. ) ;
#252 = ORIENTED_EDGE ( 'NONE', *, *, #129, .F. ) ;
#253 = DATE_TIME_ROLE ( 'creation_date' ) ;
#254 = CIRCLE ( 'NONE', #183, 30.59999999999999800 ) ;
#255 = FACE_OUTER_BOUND ( 'NONE', #126, .T. ) ;
#256 = ORIENTED_EDGE ( 'NONE', *, *, #50, .T. ) ;
#257 = AXIS2_PLACEMENT_3D ( 'NONE', #286, #182, #7 ) ;
#258 = DIRECTION ( 'NONE',  ( -1.000000000000000000, 0.0000000000000000000, 0.0000000000000000000 ) ) ;
#259 = DIRECTION ( 'NONE',  ( -1.000000000000000000, 0.0000000000000000000, 0.0000000000000000000 ) ) ;
#260 = EDGE_CURVE ( 'NONE', #268, #310, #216, .T. ) ;
#261 = ADVANCED_BREP_SHAPE_REPRESENTATION ( '4931-E0W', ( #73, #185 ), #237 ) ;
#262 = FACE_OUTER_BOUND ( 'NONE', #40, .T. ) ;
#263 = CARTESIAN_POINT ( 'NONE',  ( 0.0000000000000000000, 0.0000000000000000000, 7.119539320488916800 ) ) ;
#264 = VERTEX_POINT ( 'NONE', #304 ) ;
#265 = EDGE_LOOP ( 'NONE', ( #284, #136, #246, #297 ) ) ;
#266 = CALENDAR_DATE ( 2015, 13, 7 ) ;
#267 = ORIENTED_EDGE ( 'NONE', *, *, #244, .F. ) ;
#268 = VERTEX_POINT ( 'NONE', #324 ) ;
#269 = CC_DESIGN_PERSON_AND_ORGANIZATION_ASSIGNMENT ( #295, #59, ( #219 ) ) ;
#270 = DIRECTION ( 'NONE',  ( -1.000000000000000000, 0.0000000000000000000, 0.0000000000000000000 ) ) ;
#271 = CARTESIAN_POINT ( 'NONE',  ( 0.0000000000000000000, 0.0000000000000000000, -6.211625593828737900 ) ) ;
#272 = ORIENTED_EDGE ( 'NONE', *, *, #277, .T. ) ;
#273 = EDGE_LOOP ( 'NONE', ( #175, #99, #342, #320, #35 ) ) ;
#274 = ORIENTED_EDGE ( 'NONE', *, *, #191, .F. ) ;
#275 = AXIS2_PLACEMENT_3D ( 'NONE', #121, #317, #157 ) ;
#276 = DIRECTION ( 'NONE',  ( -0.0000000000000000000, -0.0000000000000000000, 1.000000000000000000 ) ) ;
#277 = EDGE_CURVE ( 'NONE', #212, #310, #351, .T. ) ;
#278 = DIRECTION ( 'NONE',  ( -1.000000000000000000, 0.0000000000000000000, 0.0000000000000000000 ) ) ;
#279 = APPROVAL_DATE_TIME ( #124, #325 ) ;
#280 = ADVANCED_FACE ( 'NONE', ( #255 ), #363, .T. ) ;
#281 = CARTESIAN_POINT ( 'NONE',  ( 25.39999999999999900, 0.0000000000000000000, 7.119539320488916800 ) ) ;
#282 = APPLICATION_CONTEXT ( 'configuration controlled 3d designs of mechanical parts and assemblies' ) ;
#283 = APPROVAL_ROLE ( '' ) ;
#284 = ORIENTED_EDGE ( 'NONE', *, *, #334, .F. ) ;
#285 = COORDINATED_UNIVERSAL_TIME_OFFSET ( 5, 0, .BEHIND. ) ;
#286 = CARTESIAN_POINT ( 'NONE',  ( 0.0000000000000000000, 0.0000000000000000000, -7.421281540556584000 ) ) ;
#287 = CARTESIAN_POINT ( 'NONE',  ( 0.0000000000000000000, 0.0000000000000000000, 7.119539320488916800 ) ) ;
#288 = LOCAL_TIME ( 11, 21, 3.000000000000000000, #285 ) ;
#289 = ORIENTED_EDGE ( 'NONE', *, *, #277, .F. ) ;
#290 = CC_DESIGN_DATE_AND_TIME_ASSIGNMENT ( #301, #253, ( #219 ) ) ;
#291 = LOCAL_TIME ( 11, 21, 3.000000000000000000, #181 ) ;
#292 = PRODUCT_DEFINITION_SHAPE ( 'NONE', 'NONE',  #219 ) ;
#293 = AXIS2_PLACEMENT_3D ( 'NONE', #223, #52, #247 ) ;
#294 = CARTESIAN_POINT ( 'NONE',  ( -25.16225445199409100, 3.096045153615428800E-015, -7.593069314651365300 ) ) ;
#295 = PERSON_AND_ORGANIZATION ( #327, #195 ) ;
#296 = ORIENTED_EDGE ( 'NONE', *, *, #170, .T. ) ;
#297 = ORIENTED_EDGE ( 'NONE', *, *, #355, .T. ) ;
#298 = EDGE_CURVE ( 'NONE', #74, #362, #206, .T. ) ;
#299 = DIRECTION ( 'NONE',  ( 0.0000000000000000000, 0.0000000000000000000, -1.000000000000000000 ) ) ;
#300 = DIRECTION ( 'NONE',  ( -1.000000000000000000, 0.0000000000000000000, 0.0000000000000000000 ) ) ;
#301 = DATE_AND_TIME ( #266, #149 ) ;
#302 = CARTESIAN_POINT ( 'NONE',  ( 0.0000000000000000000, 0.0000000000000000000, -23.48046067951108300 ) ) ;
#303 = PERSON_AND_ORGANIZATION ( #327, #195 ) ;
#304 = CARTESIAN_POINT ( 'NONE',  ( 0.0000000000000000000, -4.953696302551043500E-015, -3.580460679511079800 ) ) ;
#305 = ORIENTED_EDGE ( 'NONE', *, *, #49, .F. ) ;
#306 = PRODUCT_DEFINITION_FORMATION_WITH_SPECIFIED_SOURCE ( 'ANY', '', #14, .NOT_KNOWN. ) ;
#307 = DIRECTION ( 'NONE',  ( 0.0000000000000000000, 0.0000000000000000000, 1.000000000000000000 ) ) ;
#308 = PERSON_AND_ORGANIZATION_ROLE ( 'design_supplier' ) ;
#309 = ORIENTED_EDGE ( 'NONE', *, *, #94, .T. ) ;
#310 = VERTEX_POINT ( 'NONE', #164 ) ;
#311 = EDGE_LOOP ( 'NONE', ( #274, #147, #235, #123, #85 ) ) ;
#312 = CIRCLE ( 'NONE', #120, 25.26157823223849900 ) ;
#313 = CALENDAR_DATE ( 2015, 13, 7 ) ;
#314 = CALENDAR_DATE ( 2015, 13, 7 ) ;
#315 = AXIS2_PLACEMENT_3D ( 'NONE', #347, #259, #184 ) ;
#316 = CARTESIAN_POINT ( 'NONE',  ( 0.0000000000000000000, 0.0000000000000000000, -7.421281540556584000 ) ) ;
#317 = DIRECTION ( 'NONE',  ( 0.0000000000000000000, 0.0000000000000000000, -1.000000000000000000 ) ) ;
#318 = EDGE_CURVE ( 'NONE', #207, #155, #312, .T. ) ;
#319 = ORIENTED_EDGE ( 'NONE', *, *, #72, .T. ) ;
#320 = ORIENTED_EDGE ( 'NONE', *, *, #50, .F. ) ;
#321 = ORIENTED_EDGE ( 'NONE', *, *, #110, .F. ) ;
#322 = APPROVAL_PERSON_ORGANIZATION ( #357, #325, #283 ) ;
#323 = CIRCLE ( 'NONE', #139, 30.60000000000000100 ) ;
#324 = CARTESIAN_POINT ( 'NONE',  ( 25.39999999999999900, 0.0000000000000000000, -7.421281540556584000 ) ) ;
#325 = APPROVAL ( #89, 'UNSPECIFIED' ) ;
#326 = DATE_AND_TIME ( #160, #291 ) ;
#327 = PERSON ( 'UNSPECIFIED', 'UNSPECIFIED', 'UNSPECIFIED', ('UNSPECIFIED'), ('UNSPECIFIED'), ('UNSPECIFIED') ) ;
#328 = DIRECTION ( 'NONE',  ( 0.0000000000000000000, 0.0000000000000000000, -1.000000000000000000 ) ) ;
#329 = LOCAL_TIME ( 11, 21, 3.000000000000000000, #82 ) ;
#330 = VERTEX_POINT ( 'NONE', #46 ) ;
#331 = CARTESIAN_POINT ( 'NONE',  ( 0.0000000000000000000, 0.0000000000000000000, -7.593069314651365300 ) ) ;
#332 = AXIS2_PLACEMENT_3D ( 'NONE', #138, #333, #171 ) ;
#333 = DIRECTION ( 'NONE',  ( -1.000000000000000000, -0.0000000000000000000, -0.0000000000000000000 ) ) ;
#334 = EDGE_CURVE ( 'NONE', #155, #9, #323, .T. ) ;
#335 = CARTESIAN_POINT ( 'NONE',  ( 0.0000000000000000000, 0.0000000000000000000, -6.211625593828741500 ) ) ;
#336 = CALENDAR_DATE ( 2015, 13, 7 ) ;
#337 = FACE_OUTER_BOUND ( 'NONE', #311, .T. ) ;
#338 = DIRECTION ( 'NONE',  ( 0.0000000000000000000, 1.000000000000000000, 0.0000000000000000000 ) ) ;
#339 = MECHANICAL_CONTEXT ( 'NONE', #282, 'mechanical' ) ;
#340 = ADVANCED_FACE ( 'NONE', ( #337 ), #34, .T. ) ;
#341 = PERSON_AND_ORGANIZATION_ROLE ( 'classification_officer' ) ;
#342 = ORIENTED_EDGE ( 'NONE', *, *, #94, .F. ) ;
#343 = CARTESIAN_POINT ( 'NONE',  ( 0.0000000000000000000, 0.0000000000000000000, -7.421281540556584000 ) ) ;
#344 = ORIENTED_EDGE ( 'NONE', *, *, #355, .F. ) ;
#345 = CARTESIAN_POINT ( 'NONE',  ( 0.0000000000000000000, 0.0000000000000000000, -6.665877473349828700 ) ) ;
#346 = DIRECTION ( 'NONE',  ( 1.000000000000000000, 0.0000000000000000000, 0.0000000000000000000 ) ) ;
#347 = CARTESIAN_POINT ( 'NONE',  ( 0.0000000000000000000, 0.0000000000000000000, -23.48046067951108300 ) ) ;
#348 = DATE_AND_TIME ( #313, #288 ) ;
#349 = CC_DESIGN_APPROVAL ( #325, ( #306 ) ) ;
#350 = CARTESIAN_POINT ( 'NONE',  ( 0.0000000000000000000, 0.0000000000000000000, -6.211625593828737900 ) ) ;
#351 = CIRCLE ( 'NONE', #44, 25.39999999999999900 ) ;
#352 = ORIENTED_EDGE ( 'NONE', *, *, #154, .T. ) ;
#353 = AXIS2_PLACEMENT_3D ( 'NONE', #335, #53, #278 ) ;
#354 = DESIGN_CONTEXT ( 'detailed design', #367, 'design' ) ;
#355 = EDGE_CURVE ( 'NONE', #362, #9, #254, .T. ) ;
#356 = SPHERICAL_SURFACE ( 'NONE', #217, 80.90000000000000600 ) ;
#357 = PERSON_AND_ORGANIZATION ( #327, #195 ) ;
#358 = CARTESIAN_POINT ( 'NONE',  ( 0.0000000000000000000, 0.0000000000000000000, -23.48046067951108300 ) ) ;
#359 = DIRECTION ( 'NONE',  ( 0.0000000000000000000, -1.000000000000000000, 0.0000000000000000000 ) ) ;
#360 = PERSON_AND_ORGANIZATION ( #327, #195 ) ;
#361 = CARTESIAN_POINT ( 'NONE',  ( 25.16225445199409100, 0.0000000000000000000, -7.593069314651365300 ) ) ;
#362 = VERTEX_POINT ( 'NONE', #47 ) ;
#363 = CONICAL_SURFACE ( 'NONE', #86, 25.39999999999999900, 0.9450828377510932500 ) ;
#364 = CC_DESIGN_PERSON_AND_ORGANIZATION_ASSIGNMENT ( #202, #117, ( #306 ) ) ;
#365 = ADVANCED_FACE ( 'NONE', ( #262 ), #356, .F. ) ;
#366 = CARTESIAN_POINT ( 'NONE',  ( 0.0000000000000000000, 0.0000000000000000000, -7.421281540556584000 ) ) ;
#367 = APPLICATION_CONTEXT ( 'configuration controlled 3d designs of mechanical parts and assemblies' ) ;
ENDSEC;
END-ISO-10303-21;
