ISO-10303-21;
HEADER;
FILE_DESCRIPTION (( 'STEP AP203' ),
    '1' );
FILE_NAME ('Web Model 20464_20472.step',
    '2022-06-06T20:38:52',
    ( 'WC' ),
    ( 'Windows Central' ),
    'SwSTEP 2.0',
    'SolidWorks 2021',
    '' );
FILE_SCHEMA (( 'CONFIG_CONTROL_DESIGN' ));
ENDSEC;

DATA;
#1 = CARTESIAN_POINT ( 'NONE',  ( -4.500000000000000000, 0.000000000000000000, 1.000000000000000000 ) ) ;
#2 = UNCERTAINTY_MEASURE_WITH_UNIT (LENGTH_MEASURE( 1.000000000000000082E-05 ), #127, 'distance_accuracy_value', 'NONE');
#3 = LINE ( 'NONE', #1, #91 ) ;
#4 =( NAMED_UNIT ( * ) SI_UNIT ( $, .STERADIAN. ) SOLID_ANGLE_UNIT ( ) );
#5 = EDGE_CURVE ( 'NONE', #95, #81, #79, .T. ) ;
#6 = PERSON_AND_ORGANIZATION ( #115, #116 ) ;
#7 = COORDINATED_UNIVERSAL_TIME_OFFSET ( 5, 0, .BEHIND. ) ;
#8 = ADVANCED_FACE ( 'NONE', ( #150 ), #38, .T. ) ;
#9 = AXIS2_PLACEMENT_3D ( 'NONE', #13, #58, #43 ) ;
#10 = DIRECTION ( 'NONE',  ( 1.000000000000000000, 0.000000000000000000, 0.000000000000000000 ) ) ;
#11 = PRODUCT_DEFINITION ( 'UNKNOWN', '', #129, #56 ) ;
#12 = DIRECTION ( 'NONE',  ( -0.000000000000000000, -0.000000000000000000, -1.000000000000000000 ) ) ;
#13 = CARTESIAN_POINT ( 'NONE',  ( 0.000000000000000000, 0.000000000000000000, 0.000000000000000000 ) ) ;
#14 = CIRCLE ( 'NONE', #161, 4.500000000000000000 ) ;
#15 = CC_DESIGN_PERSON_AND_ORGANIZATION_ASSIGNMENT ( #6, #93, ( #45 ) ) ;
#16 = CALENDAR_DATE ( 2022, 6, 6 ) ;
#17 = AXIS2_PLACEMENT_3D ( 'NONE', #139, #50, #83 ) ;
#18 = PERSON_AND_ORGANIZATION_ROLE ( 'creator' ) ;
#19 = APPLICATION_CONTEXT ( 'configuration controlled 3d designs of mechanical parts and assemblies' ) ;
#20 = COORDINATED_UNIVERSAL_TIME_OFFSET ( 5, 0, .BEHIND. ) ;
#21 = EDGE_LOOP ( 'NONE', ( #175, #27, #66, #37 ) ) ;
#22 = LOCAL_TIME ( 16, 38, 52.00000000000000000, #173 ) ;
#23 = MANIFOLD_SOLID_BREP ( 'Boss-Extrude1', #157 ) ;
#24 = CARTESIAN_POINT ( 'NONE',  ( 0.000000000000000000, 0.000000000000000000, 1.000000000000000000 ) ) ;
#25 = EDGE_CURVE ( 'NONE', #95, #125, #82, .T. ) ;
#26 = ORIENTED_EDGE ( 'NONE', *, *, #5, .F. ) ;
#27 = ORIENTED_EDGE ( 'NONE', *, *, #5, .T. ) ;
#28 = CARTESIAN_POINT ( 'NONE',  ( 0.000000000000000000, 0.000000000000000000, 0.000000000000000000 ) ) ;
#29 = DIRECTION ( 'NONE',  ( 0.000000000000000000, 0.000000000000000000, 1.000000000000000000 ) ) ;
#30 = AXIS2_PLACEMENT_3D ( 'NONE', #156, #54, #10 ) ;
#31 = LOCAL_TIME ( 16, 38, 52.00000000000000000, #72 ) ;
#32 = PERSON_AND_ORGANIZATION_ROLE ( 'design_owner' ) ;
#33 = CALENDAR_DATE ( 2022, 6, 6 ) ;
#34 = APPROVAL_PERSON_ORGANIZATION ( #59, #159, #160 ) ;
#35 = APPROVAL_DATE_TIME ( #162, #87 ) ;
#36 = DIRECTION ( 'NONE',  ( -0.000000000000000000, -0.000000000000000000, -1.000000000000000000 ) ) ;
#37 = ORIENTED_EDGE ( 'NONE', *, *, #143, .F. ) ;
#38 = PLANE ( 'NONE',  #113 ) ;
#39 = DIRECTION ( 'NONE',  ( -0.000000000000000000, -0.000000000000000000, -1.000000000000000000 ) ) ;
#40 = LOCAL_TIME ( 16, 38, 52.00000000000000000, #20 ) ;
#41 =( NAMED_UNIT ( * ) PLANE_ANGLE_UNIT ( ) SI_UNIT ( $, .RADIAN. ) );
#42 = CC_DESIGN_PERSON_AND_ORGANIZATION_ASSIGNMENT ( #171, #32, ( #96 ) ) ;
#43 = DIRECTION ( 'NONE',  ( 1.000000000000000000, 0.000000000000000000, 0.000000000000000000 ) ) ;
#44 = AXIS2_PLACEMENT_3D ( 'NONE', #98, #12, #85 ) ;
#45 = SECURITY_CLASSIFICATION ( '', '', #74 ) ;
#46 = APPROVAL_DATE_TIME ( #88, #159 ) ;
#47 = PERSON_AND_ORGANIZATION ( #115, #116 ) ;
#48 = CARTESIAN_POINT ( 'NONE',  ( 4.500000000000000000, 5.510910596163088569E-16, 1.000000000000000000 ) ) ;
#49 = EDGE_LOOP ( 'NONE', ( #164, #110 ) ) ;
#50 = DIRECTION ( 'NONE',  ( 0.000000000000000000, 0.000000000000000000, 1.000000000000000000 ) ) ;
#51 = FACE_OUTER_BOUND ( 'NONE', #49, .T. ) ;
#52 = CYLINDRICAL_SURFACE ( 'NONE', #170, 4.500000000000000000 ) ;
#53 = APPROVAL_PERSON_ORGANIZATION ( #120, #87, #147 ) ;
#54 = DIRECTION ( 'NONE',  ( 0.000000000000000000, 0.000000000000000000, 1.000000000000000000 ) ) ;
#55 = MECHANICAL_CONTEXT ( 'NONE', #141, 'mechanical' ) ;
#56 = DESIGN_CONTEXT ( 'detailed design', #19, 'design' ) ;
#57 = AXIS2_PLACEMENT_3D ( 'NONE', #24, #138, #64 ) ;
#58 = DIRECTION ( 'NONE',  ( 0.000000000000000000, 0.000000000000000000, 1.000000000000000000 ) ) ;
#59 = PERSON_AND_ORGANIZATION ( #115, #116 ) ;
#60 = CALENDAR_DATE ( 2022, 6, 6 ) ;
#61 = DATE_AND_TIME ( #119, #169 ) ;
#62 = ORIENTED_EDGE ( 'NONE', *, *, #73, .T. ) ;
#63 = CC_DESIGN_DATE_AND_TIME_ASSIGNMENT ( #118, #121, ( #11 ) ) ;
#64 = DIRECTION ( 'NONE',  ( 1.000000000000000000, 0.000000000000000000, 0.000000000000000000 ) ) ;
#65 = CIRCLE ( 'NONE', #17, 4.500000000000000000 ) ;
#66 = ORIENTED_EDGE ( 'NONE', *, *, #101, .T. ) ;
#67 = FACE_OUTER_BOUND ( 'NONE', #122, .T. ) ;
#68 = CC_DESIGN_APPROVAL ( #145, ( #45 ) ) ;
#69 = PLANE ( 'NONE',  #75 ) ;
#70 = CARTESIAN_POINT ( 'NONE',  ( 0.000000000000000000, 0.000000000000000000, 0.000000000000000000 ) ) ;
#71 = CC_DESIGN_DATE_AND_TIME_ASSIGNMENT ( #78, #137, ( #45 ) ) ;
#72 = COORDINATED_UNIVERSAL_TIME_OFFSET ( 5, 0, .BEHIND. ) ;
#73 = EDGE_CURVE ( 'NONE', #125, #95, #65, .T. ) ;
#74 = SECURITY_CLASSIFICATION_LEVEL ( 'unclassified' ) ;
#75 = AXIS2_PLACEMENT_3D ( 'NONE', #70, #144, #168 ) ;
#76 = VERTEX_POINT ( 'NONE', #111 ) ;
#77 = CARTESIAN_POINT ( 'NONE',  ( 0.000000000000000000, 0.000000000000000000, 1.000000000000000000 ) ) ;
#78 = DATE_AND_TIME ( #135, #40 ) ;
#79 = LINE ( 'NONE', #48, #153 ) ;
#80 = APPROVAL_PERSON_ORGANIZATION ( #163, #145, #90 ) ;
#81 = VERTEX_POINT ( 'NONE', #166 ) ;
#82 = CIRCLE ( 'NONE', #57, 4.500000000000000000 ) ;
#83 = DIRECTION ( 'NONE',  ( 1.000000000000000000, 0.000000000000000000, 0.000000000000000000 ) ) ;
#84 = DIRECTION ( 'NONE',  ( 1.000000000000000000, 0.000000000000000000, 0.000000000000000000 ) ) ;
#85 = DIRECTION ( 'NONE',  ( -1.000000000000000000, 0.000000000000000000, 0.000000000000000000 ) ) ;
#86 =( GEOMETRIC_REPRESENTATION_CONTEXT ( 3 ) GLOBAL_UNCERTAINTY_ASSIGNED_CONTEXT ( ( #2 ) ) GLOBAL_UNIT_ASSIGNED_CONTEXT ( ( #127, #41, #4 ) ) REPRESENTATION_CONTEXT ( 'NONE', 'WORKASPACE' ) );
#87 = APPROVAL ( #106, 'UNSPECIFIED' ) ;
#88 = DATE_AND_TIME ( #33, #105 ) ;
#89 = PERSON_AND_ORGANIZATION ( #115, #116 ) ;
#90 = APPROVAL_ROLE ( '' ) ;
#91 = VECTOR ( 'NONE', #140, 1000.000000000000000 ) ;
#92 = APPROVAL_STATUS ( 'not_yet_approved' ) ;
#93 = PERSON_AND_ORGANIZATION_ROLE ( 'classification_officer' ) ;
#94 = CC_DESIGN_PERSON_AND_ORGANIZATION_ASSIGNMENT ( #89, #18, ( #129 ) ) ;
#95 = VERTEX_POINT ( 'NONE', #154 ) ;
#96 = PRODUCT ( 'Web Model 20464_20472', 'Web Model 20464_20472', '', ( #55 ) ) ;
#97 = DIRECTION ( 'NONE',  ( -1.000000000000000000, 0.000000000000000000, 0.000000000000000000 ) ) ;
#98 = CARTESIAN_POINT ( 'NONE',  ( 0.000000000000000000, 0.000000000000000000, 1.000000000000000000 ) ) ;
#99 = CC_DESIGN_PERSON_AND_ORGANIZATION_ASSIGNMENT ( #47, #102, ( #11 ) ) ;
#100 = APPLICATION_PROTOCOL_DEFINITION ( 'international standard', 'config_control_design', 1994, #141 ) ;
#101 = EDGE_CURVE ( 'NONE', #81, #76, #124, .T. ) ;
#102 = PERSON_AND_ORGANIZATION_ROLE ( 'creator' ) ;
#103 = APPROVAL_DATE_TIME ( #61, #145 ) ;
#104 = CC_DESIGN_APPROVAL ( #159, ( #11 ) ) ;
#105 = LOCAL_TIME ( 16, 38, 52.00000000000000000, #7 ) ;
#106 = APPROVAL_STATUS ( 'not_yet_approved' ) ;
#107 = ORIENTED_EDGE ( 'NONE', *, *, #108, .T. ) ;
#108 = EDGE_CURVE ( 'NONE', #76, #81, #14, .T. ) ;
#109 = EDGE_LOOP ( 'NONE', ( #62, #134 ) ) ;
#110 = ORIENTED_EDGE ( 'NONE', *, *, #101, .F. ) ;
#111 = CARTESIAN_POINT ( 'NONE',  ( -4.500000000000000000, 0.000000000000000000, 0.000000000000000000 ) ) ;
#112 = CYLINDRICAL_SURFACE ( 'NONE', #44, 4.500000000000000000 ) ;
#113 = AXIS2_PLACEMENT_3D ( 'NONE', #77, #136, #151 ) ;
#114 = ADVANCED_FACE ( 'NONE', ( #51 ), #69, .F. ) ;
#115 = PERSON ( 'UNSPECIFIED', 'UNSPECIFIED', 'UNSPECIFIED', ('UNSPECIFIED'), ('UNSPECIFIED'), ('UNSPECIFIED') ) ;
#116 = ORGANIZATION ( 'UNSPECIFIED', 'UNSPECIFIED', '' ) ;
#117 = ADVANCED_FACE ( 'NONE', ( #126 ), #112, .T. ) ;
#118 = DATE_AND_TIME ( #60, #31 ) ;
#119 = CALENDAR_DATE ( 2022, 6, 6 ) ;
#120 = PERSON_AND_ORGANIZATION ( #115, #116 ) ;
#121 = DATE_TIME_ROLE ( 'creation_date' ) ;
#122 = EDGE_LOOP ( 'NONE', ( #26, #123, #174, #107 ) ) ;
#123 = ORIENTED_EDGE ( 'NONE', *, *, #73, .F. ) ;
#124 = CIRCLE ( 'NONE', #30, 4.500000000000000000 ) ;
#125 = VERTEX_POINT ( 'NONE', #128 ) ;
#126 = FACE_OUTER_BOUND ( 'NONE', #21, .T. ) ;
#127 =( LENGTH_UNIT ( ) NAMED_UNIT ( * ) SI_UNIT ( .MILLI., .METRE. ) );
#128 = CARTESIAN_POINT ( 'NONE',  ( -4.500000000000000000, 0.000000000000000000, 1.000000000000000000 ) ) ;
#129 = PRODUCT_DEFINITION_FORMATION_WITH_SPECIFIED_SOURCE ( 'ANY', '', #96, .NOT_KNOWN. ) ;
#130 = ADVANCED_FACE ( 'NONE', ( #67 ), #52, .T. ) ;
#131 = PERSON_AND_ORGANIZATION ( #115, #116 ) ;
#132 = SHAPE_DEFINITION_REPRESENTATION ( #152, #146 ) ;
#133 = CC_DESIGN_SECURITY_CLASSIFICATION ( #45, ( #129 ) ) ;
#134 = ORIENTED_EDGE ( 'NONE', *, *, #25, .T. ) ;
#135 = CALENDAR_DATE ( 2022, 6, 6 ) ;
#136 = DIRECTION ( 'NONE',  ( 0.000000000000000000, 0.000000000000000000, 1.000000000000000000 ) ) ;
#137 = DATE_TIME_ROLE ( 'classification_date' ) ;
#138 = DIRECTION ( 'NONE',  ( 0.000000000000000000, 0.000000000000000000, 1.000000000000000000 ) ) ;
#139 = CARTESIAN_POINT ( 'NONE',  ( 0.000000000000000000, 0.000000000000000000, 1.000000000000000000 ) ) ;
#140 = DIRECTION ( 'NONE',  ( -0.000000000000000000, -0.000000000000000000, -1.000000000000000000 ) ) ;
#141 = APPLICATION_CONTEXT ( 'configuration controlled 3d designs of mechanical parts and assemblies' ) ;
#142 = PRODUCT_RELATED_PRODUCT_CATEGORY ( 'detail', '', ( #96 ) ) ;
#143 = EDGE_CURVE ( 'NONE', #125, #76, #3, .T. ) ;
#144 = DIRECTION ( 'NONE',  ( 0.000000000000000000, 0.000000000000000000, 1.000000000000000000 ) ) ;
#145 = APPROVAL ( #92, 'UNSPECIFIED' ) ;
#146 = ADVANCED_BREP_SHAPE_REPRESENTATION ( 'Web Model 20464_20472', ( #23, #9 ), #86 ) ;
#147 = APPROVAL_ROLE ( '' ) ;
#148 = PERSON_AND_ORGANIZATION_ROLE ( 'design_supplier' ) ;
#149 = COORDINATED_UNIVERSAL_TIME_OFFSET ( 5, 0, .BEHIND. ) ;
#150 = FACE_OUTER_BOUND ( 'NONE', #109, .T. ) ;
#151 = DIRECTION ( 'NONE',  ( 1.000000000000000000, 0.000000000000000000, -0.000000000000000000 ) ) ;
#152 = PRODUCT_DEFINITION_SHAPE ( 'NONE', 'NONE',  #11 ) ;
#153 = VECTOR ( 'NONE', #36, 1000.000000000000000 ) ;
#154 = CARTESIAN_POINT ( 'NONE',  ( 4.500000000000000000, 5.510910596163088569E-16, 1.000000000000000000 ) ) ;
#155 = CC_DESIGN_PERSON_AND_ORGANIZATION_ASSIGNMENT ( #131, #148, ( #129 ) ) ;
#156 = CARTESIAN_POINT ( 'NONE',  ( 0.000000000000000000, 0.000000000000000000, 0.000000000000000000 ) ) ;
#157 = CLOSED_SHELL ( 'NONE', ( #117, #130, #8, #114 ) ) ;
#158 = APPLICATION_PROTOCOL_DEFINITION ( 'international standard', 'config_control_design', 1994, #19 ) ;
#159 = APPROVAL ( #172, 'UNSPECIFIED' ) ;
#160 = APPROVAL_ROLE ( '' ) ;
#161 = AXIS2_PLACEMENT_3D ( 'NONE', #28, #29, #84 ) ;
#162 = DATE_AND_TIME ( #16, #22 ) ;
#163 = PERSON_AND_ORGANIZATION ( #115, #116 ) ;
#164 = ORIENTED_EDGE ( 'NONE', *, *, #108, .F. ) ;
#165 = CC_DESIGN_APPROVAL ( #87, ( #129 ) ) ;
#166 = CARTESIAN_POINT ( 'NONE',  ( 4.500000000000000000, 5.510910596163088569E-16, 0.000000000000000000 ) ) ;
#167 = CARTESIAN_POINT ( 'NONE',  ( 0.000000000000000000, 0.000000000000000000, 1.000000000000000000 ) ) ;
#168 = DIRECTION ( 'NONE',  ( 1.000000000000000000, 0.000000000000000000, -0.000000000000000000 ) ) ;
#169 = LOCAL_TIME ( 16, 38, 52.00000000000000000, #149 ) ;
#170 = AXIS2_PLACEMENT_3D ( 'NONE', #167, #39, #97 ) ;
#171 = PERSON_AND_ORGANIZATION ( #115, #116 ) ;
#172 = APPROVAL_STATUS ( 'not_yet_approved' ) ;
#173 = COORDINATED_UNIVERSAL_TIME_OFFSET ( 5, 0, .BEHIND. ) ;
#174 = ORIENTED_EDGE ( 'NONE', *, *, #143, .T. ) ;
#175 = ORIENTED_EDGE ( 'NONE', *, *, #25, .F. ) ;
ENDSEC;
END-ISO-10303-21;
