ISO-10303-21;
HEADER;
FILE_DESCRIPTION (( 'STEP AP203' ),
    '1' );
FILE_NAME ('Web Model 45308_36968.step',
    '2019-01-07T15:46:26',
    ( '' ),
    ( '' ),
    'SwSTEP 2.0',
    'SolidWorks 2016',
    '' );
FILE_SCHEMA (( 'CONFIG_CONTROL_DESIGN' ));
ENDSEC;

DATA;
#1 = EDGE_LOOP ( 'NONE', ( #144, #65 ) ) ;
#2 = VECTOR ( 'NONE', #114, 1000.000000000000000 ) ;
#3 = DIRECTION ( 'NONE',  ( 1.000000000000000000, 0.0000000000000000000, -0.0000000000000000000 ) ) ;
#4 = ORIENTED_EDGE ( 'NONE', *, *, #29, .T. ) ;
#5 = CC_DESIGN_PERSON_AND_ORGANIZATION_ASSIGNMENT ( #137, #174, ( #173 ) ) ;
#6 = CYLINDRICAL_SURFACE ( 'NONE', #33, 5.000000000000000000 ) ;
#7 = CARTESIAN_POINT ( 'NONE',  ( 0.0000000000000000000, 0.0000000000000000000, -0.5000000000000000000 ) ) ;
#8 = APPROVAL_PERSON_ORGANIZATION ( #63, #66, #175 ) ;
#9 = ADVANCED_BREP_SHAPE_REPRESENTATION ( 'Web Model 45308_36968', ( #106, #163 ), #73 ) ;
#10 = AXIS2_PLACEMENT_3D ( 'NONE', #166, #100, #111 ) ;
#11 = ORIENTED_EDGE ( 'NONE', *, *, #125, .F. ) ;
#12 = PERSON ( 'UNSPECIFIED', 'UNSPECIFIED', 'UNSPECIFIED', ('UNSPECIFIED'), ('UNSPECIFIED'), ('UNSPECIFIED') ) ;
#13 = DIRECTION ( 'NONE',  ( 1.000000000000000000, 0.0000000000000000000, 0.0000000000000000000 ) ) ;
#14 = PRODUCT_DEFINITION ( 'UNKNOWN', '', #17, #72 ) ;
#15 = CALENDAR_DATE ( 2019, 7, 1 ) ;
#16 = CARTESIAN_POINT ( 'NONE',  ( -5.000000000000000000, 0.0000000000000000000, -0.5000000000000000000 ) ) ;
#17 = PRODUCT_DEFINITION_FORMATION_WITH_SPECIFIED_SOURCE ( 'ANY', '', #173, .NOT_KNOWN. ) ;
#18 = CALENDAR_DATE ( 2019, 7, 1 ) ;
#19 = CC_DESIGN_PERSON_AND_ORGANIZATION_ASSIGNMENT ( #54, #25, ( #14 ) ) ;
#20 = CLOSED_SHELL ( 'NONE', ( #74, #34, #126, #170 ) ) ;
#21 = ORIENTED_EDGE ( 'NONE', *, *, #53, .F. ) ;
#22 = LOCAL_TIME ( 10, 46, 26.00000000000000000, #50 ) ;
#23 = DIRECTION ( 'NONE',  ( 0.0000000000000000000, 0.0000000000000000000, 1.000000000000000000 ) ) ;
#24 = LOCAL_TIME ( 10, 46, 26.00000000000000000, #142 ) ;
#25 = PERSON_AND_ORGANIZATION_ROLE ( 'creator' ) ;
#26 = CC_DESIGN_DATE_AND_TIME_ASSIGNMENT ( #92, #116, ( #14 ) ) ;
#27 = ORGANIZATION ( 'UNSPECIFIED', 'UNSPECIFIED', '' ) ;
#28 = DIRECTION ( 'NONE',  ( 1.000000000000000000, 0.0000000000000000000, 0.0000000000000000000 ) ) ;
#29 = EDGE_CURVE ( 'NONE', #120, #119, #148, .T. ) ;
#30 = ORIENTED_EDGE ( 'NONE', *, *, #112, .F. ) ;
#31 = DIRECTION ( 'NONE',  ( -1.000000000000000000, 0.0000000000000000000, 0.0000000000000000000 ) ) ;
#32 = DATE_AND_TIME ( #15, #22 ) ;
#33 = AXIS2_PLACEMENT_3D ( 'NONE', #167, #150, #31 ) ;
#34 = ADVANCED_FACE ( 'NONE', ( #45 ), #77, .T. ) ;
#35 = DIRECTION ( 'NONE',  ( 1.000000000000000000, 0.0000000000000000000, -0.0000000000000000000 ) ) ;
#36 = ORIENTED_EDGE ( 'NONE', *, *, #29, .F. ) ;
#37 = CIRCLE ( 'NONE', #107, 5.000000000000000000 ) ;
#38 = APPROVAL_ROLE ( '' ) ;
#39 = FACE_OUTER_BOUND ( 'NONE', #104, .T. ) ;
#40 = APPROVAL ( #130, 'UNSPECIFIED' ) ;
#41 = COORDINATED_UNIVERSAL_TIME_OFFSET ( 5, 0, .BEHIND. ) ;
#42 = ORIENTED_EDGE ( 'NONE', *, *, #161, .T. ) ;
#43 = CARTESIAN_POINT ( 'NONE',  ( 5.000000000000000000, 6.123233995736766300E-016, 0.5000000000000000000 ) ) ;
#44 = PERSON_AND_ORGANIZATION ( #12, #27 ) ;
#45 = FACE_OUTER_BOUND ( 'NONE', #69, .T. ) ;
#46 = SECURITY_CLASSIFICATION ( '', '', #141 ) ;
#47 = APPROVAL_ROLE ( '' ) ;
#48 = CARTESIAN_POINT ( 'NONE',  ( -5.000000000000000000, 0.0000000000000000000, 0.5000000000000000000 ) ) ;
#49 = APPLICATION_CONTEXT ( 'configuration controlled 3d designs of mechanical parts and assemblies' ) ;
#50 = COORDINATED_UNIVERSAL_TIME_OFFSET ( 5, 0, .BEHIND. ) ;
#51 = EDGE_LOOP ( 'NONE', ( #109, #11 ) ) ;
#52 = DATE_AND_TIME ( #165, #103 ) ;
#53 = EDGE_CURVE ( 'NONE', #120, #140, #118, .T. ) ;
#54 = PERSON_AND_ORGANIZATION ( #12, #27 ) ;
#55 = PERSON_AND_ORGANIZATION ( #12, #27 ) ;
#56 = DIRECTION ( 'NONE',  ( 0.0000000000000000000, 0.0000000000000000000, 1.000000000000000000 ) ) ;
#57 = CARTESIAN_POINT ( 'NONE',  ( 0.0000000000000000000, 0.0000000000000000000, 0.5000000000000000000 ) ) ;
#58 = DIRECTION ( 'NONE',  ( 0.0000000000000000000, 0.0000000000000000000, 1.000000000000000000 ) ) ;
#59 = CC_DESIGN_APPROVAL ( #40, ( #17 ) ) ;
#60 = ORIENTED_EDGE ( 'NONE', *, *, #88, .T. ) ;
#61 = LOCAL_TIME ( 10, 46, 26.00000000000000000, #41 ) ;
#62 = PERSON_AND_ORGANIZATION_ROLE ( 'classification_officer' ) ;
#63 = PERSON_AND_ORGANIZATION ( #12, #27 ) ;
#64 = DIRECTION ( 'NONE',  ( 1.000000000000000000, 0.0000000000000000000, 0.0000000000000000000 ) ) ;
#65 = ORIENTED_EDGE ( 'NONE', *, *, #112, .T. ) ;
#66 = APPROVAL ( #156, 'UNSPECIFIED' ) ;
#67 = APPROVAL_PERSON_ORGANIZATION ( #96, #84, #38 ) ;
#68 = CC_DESIGN_PERSON_AND_ORGANIZATION_ASSIGNMENT ( #55, #91, ( #17 ) ) ;
#69 = EDGE_LOOP ( 'NONE', ( #128, #21, #4, #60 ) ) ;
#70 = LINE ( 'NONE', #135, #2 ) ;
#71 = DIRECTION ( 'NONE',  ( 1.000000000000000000, 0.0000000000000000000, 0.0000000000000000000 ) ) ;
#72 = DESIGN_CONTEXT ( 'detailed design', #49, 'design' ) ;
#73 =( GEOMETRIC_REPRESENTATION_CONTEXT ( 3 ) GLOBAL_UNCERTAINTY_ASSIGNED_CONTEXT ( ( #82 ) ) GLOBAL_UNIT_ASSIGNED_CONTEXT ( ( #139, #123, #152 ) ) REPRESENTATION_CONTEXT ( 'NONE', 'WORKASPACE' ) );
#74 = ADVANCED_FACE ( 'NONE', ( #39 ), #6, .T. ) ;
#75 = DIRECTION ( 'NONE',  ( -1.000000000000000000, 0.0000000000000000000, 0.0000000000000000000 ) ) ;
#76 = CARTESIAN_POINT ( 'NONE',  ( 0.0000000000000000000, 0.0000000000000000000, -0.5000000000000000000 ) ) ;
#77 = CYLINDRICAL_SURFACE ( 'NONE', #129, 5.000000000000000000 ) ;
#78 = APPLICATION_PROTOCOL_DEFINITION ( 'international standard', 'config_control_design', 1994, #153 ) ;
#79 = PRODUCT_RELATED_PRODUCT_CATEGORY ( 'detail', '', ( #173 ) ) ;
#80 = DATE_AND_TIME ( #127, #24 ) ;
#81 = DATE_TIME_ROLE ( 'classification_date' ) ;
#82 = UNCERTAINTY_MEASURE_WITH_UNIT (LENGTH_MEASURE( 1.000000000000000100E-005 ), #139, 'distance_accuracy_value', 'NONE');
#83 = APPROVAL_DATE_TIME ( #80, #84 ) ;
#84 = APPROVAL ( #172, 'UNSPECIFIED' ) ;
#85 = ORIENTED_EDGE ( 'NONE', *, *, #125, .T. ) ;
#86 = AXIS2_PLACEMENT_3D ( 'NONE', #57, #149, #71 ) ;
#87 = PLANE ( 'NONE',  #95 ) ;
#88 = EDGE_CURVE ( 'NONE', #119, #90, #37, .T. ) ;
#89 = PERSON_AND_ORGANIZATION ( #12, #27 ) ;
#90 = VERTEX_POINT ( 'NONE', #169 ) ;
#91 = PERSON_AND_ORGANIZATION_ROLE ( 'design_supplier' ) ;
#92 = DATE_AND_TIME ( #18, #98 ) ;
#93 = CC_DESIGN_APPROVAL ( #84, ( #14 ) ) ;
#94 = SHAPE_DEFINITION_REPRESENTATION ( #97, #9 ) ;
#95 = AXIS2_PLACEMENT_3D ( 'NONE', #164, #56, #3 ) ;
#96 = PERSON_AND_ORGANIZATION ( #12, #27 ) ;
#97 = PRODUCT_DEFINITION_SHAPE ( 'NONE', 'NONE',  #14 ) ;
#98 = LOCAL_TIME ( 10, 46, 26.00000000000000000, #159 ) ;
#99 = CC_DESIGN_PERSON_AND_ORGANIZATION_ASSIGNMENT ( #44, #115, ( #17 ) ) ;
#100 = DIRECTION ( 'NONE',  ( 0.0000000000000000000, 0.0000000000000000000, 1.000000000000000000 ) ) ;
#101 = CIRCLE ( 'NONE', #143, 5.000000000000000000 ) ;
#102 = DIRECTION ( 'NONE',  ( -0.0000000000000000000, -0.0000000000000000000, -1.000000000000000000 ) ) ;
#103 = LOCAL_TIME ( 10, 46, 26.00000000000000000, #146 ) ;
#104 = EDGE_LOOP ( 'NONE', ( #30, #42, #85, #36 ) ) ;
#105 = DIRECTION ( 'NONE',  ( 0.0000000000000000000, 0.0000000000000000000, 1.000000000000000000 ) ) ;
#106 = MANIFOLD_SOLID_BREP ( 'Boss-Extrude1', #20 ) ;
#107 = AXIS2_PLACEMENT_3D ( 'NONE', #7, #23, #28 ) ;
#108 = FACE_OUTER_BOUND ( 'NONE', #51, .T. ) ;
#109 = ORIENTED_EDGE ( 'NONE', *, *, #88, .F. ) ;
#110 = FACE_OUTER_BOUND ( 'NONE', #1, .T. ) ;
#111 = DIRECTION ( 'NONE',  ( 1.000000000000000000, 0.0000000000000000000, 0.0000000000000000000 ) ) ;
#112 = EDGE_CURVE ( 'NONE', #140, #120, #101, .T. ) ;
#113 = DIRECTION ( 'NONE',  ( -0.0000000000000000000, -0.0000000000000000000, -1.000000000000000000 ) ) ;
#114 = DIRECTION ( 'NONE',  ( -0.0000000000000000000, -0.0000000000000000000, -1.000000000000000000 ) ) ;
#115 = PERSON_AND_ORGANIZATION_ROLE ( 'creator' ) ;
#116 = DATE_TIME_ROLE ( 'creation_date' ) ;
#117 = DIRECTION ( 'NONE',  ( 0.0000000000000000000, 0.0000000000000000000, 1.000000000000000000 ) ) ;
#118 = CIRCLE ( 'NONE', #86, 5.000000000000000000 ) ;
#119 = VERTEX_POINT ( 'NONE', #16 ) ;
#120 = VERTEX_POINT ( 'NONE', #48 ) ;
#121 = CALENDAR_DATE ( 2019, 7, 1 ) ;
#122 = CARTESIAN_POINT ( 'NONE',  ( -5.000000000000000000, 0.0000000000000000000, 0.5000000000000000000 ) ) ;
#123 =( NAMED_UNIT ( * ) PLANE_ANGLE_UNIT ( ) SI_UNIT ( $, .RADIAN. ) );
#124 = CARTESIAN_POINT ( 'NONE',  ( 0.0000000000000000000, 0.0000000000000000000, 0.5000000000000000000 ) ) ;
#125 = EDGE_CURVE ( 'NONE', #90, #119, #134, .T. ) ;
#126 = ADVANCED_FACE ( 'NONE', ( #110 ), #87, .T. ) ;
#127 = CALENDAR_DATE ( 2019, 7, 1 ) ;
#128 = ORIENTED_EDGE ( 'NONE', *, *, #161, .F. ) ;
#129 = AXIS2_PLACEMENT_3D ( 'NONE', #124, #113, #75 ) ;
#130 = APPROVAL_STATUS ( 'not_yet_approved' ) ;
#131 = APPLICATION_PROTOCOL_DEFINITION ( 'international standard', 'config_control_design', 1994, #49 ) ;
#132 = CC_DESIGN_PERSON_AND_ORGANIZATION_ASSIGNMENT ( #89, #62, ( #46 ) ) ;
#133 = APPROVAL_DATE_TIME ( #52, #40 ) ;
#134 = CIRCLE ( 'NONE', #10, 5.000000000000000000 ) ;
#135 = CARTESIAN_POINT ( 'NONE',  ( 5.000000000000000000, 6.123233995736766300E-016, 0.5000000000000000000 ) ) ;
#136 = PLANE ( 'NONE',  #168 ) ;
#137 = PERSON_AND_ORGANIZATION ( #12, #27 ) ;
#138 = CC_DESIGN_DATE_AND_TIME_ASSIGNMENT ( #151, #81, ( #46 ) ) ;
#139 =( LENGTH_UNIT ( ) NAMED_UNIT ( * ) SI_UNIT ( .MILLI., .METRE. ) );
#140 = VERTEX_POINT ( 'NONE', #43 ) ;
#141 = SECURITY_CLASSIFICATION_LEVEL ( 'unclassified' ) ;
#142 = COORDINATED_UNIVERSAL_TIME_OFFSET ( 5, 0, .BEHIND. ) ;
#143 = AXIS2_PLACEMENT_3D ( 'NONE', #157, #105, #64 ) ;
#144 = ORIENTED_EDGE ( 'NONE', *, *, #53, .T. ) ;
#145 = VECTOR ( 'NONE', #102, 1000.000000000000000 ) ;
#146 = COORDINATED_UNIVERSAL_TIME_OFFSET ( 5, 0, .BEHIND. ) ;
#147 = CC_DESIGN_APPROVAL ( #66, ( #46 ) ) ;
#148 = LINE ( 'NONE', #122, #145 ) ;
#149 = DIRECTION ( 'NONE',  ( 0.0000000000000000000, 0.0000000000000000000, 1.000000000000000000 ) ) ;
#150 = DIRECTION ( 'NONE',  ( -0.0000000000000000000, -0.0000000000000000000, -1.000000000000000000 ) ) ;
#151 = DATE_AND_TIME ( #121, #61 ) ;
#152 =( NAMED_UNIT ( * ) SI_UNIT ( $, .STERADIAN. ) SOLID_ANGLE_UNIT ( ) );
#153 = APPLICATION_CONTEXT ( 'configuration controlled 3d designs of mechanical parts and assemblies' ) ;
#154 = PERSON_AND_ORGANIZATION ( #12, #27 ) ;
#155 = CARTESIAN_POINT ( 'NONE',  ( 0.0000000000000000000, 0.0000000000000000000, 0.0000000000000000000 ) ) ;
#156 = APPROVAL_STATUS ( 'not_yet_approved' ) ;
#157 = CARTESIAN_POINT ( 'NONE',  ( 0.0000000000000000000, 0.0000000000000000000, 0.5000000000000000000 ) ) ;
#158 = MECHANICAL_CONTEXT ( 'NONE', #153, 'mechanical' ) ;
#159 = COORDINATED_UNIVERSAL_TIME_OFFSET ( 5, 0, .BEHIND. ) ;
#160 = CC_DESIGN_SECURITY_CLASSIFICATION ( #46, ( #17 ) ) ;
#161 = EDGE_CURVE ( 'NONE', #140, #90, #70, .T. ) ;
#162 = APPROVAL_PERSON_ORGANIZATION ( #154, #40, #47 ) ;
#163 = AXIS2_PLACEMENT_3D ( 'NONE', #155, #117, #13 ) ;
#164 = CARTESIAN_POINT ( 'NONE',  ( 0.0000000000000000000, 0.0000000000000000000, 0.5000000000000000000 ) ) ;
#165 = CALENDAR_DATE ( 2019, 7, 1 ) ;
#166 = CARTESIAN_POINT ( 'NONE',  ( 0.0000000000000000000, 0.0000000000000000000, -0.5000000000000000000 ) ) ;
#167 = CARTESIAN_POINT ( 'NONE',  ( 0.0000000000000000000, 0.0000000000000000000, 0.5000000000000000000 ) ) ;
#168 = AXIS2_PLACEMENT_3D ( 'NONE', #76, #58, #35 ) ;
#169 = CARTESIAN_POINT ( 'NONE',  ( 5.000000000000000000, 6.123233995736766300E-016, -0.5000000000000000000 ) ) ;
#170 = ADVANCED_FACE ( 'NONE', ( #108 ), #136, .F. ) ;
#171 = APPROVAL_DATE_TIME ( #32, #66 ) ;
#172 = APPROVAL_STATUS ( 'not_yet_approved' ) ;
#173 = PRODUCT ( 'Web Model 45308_36968', 'Web Model 45308_36968', '', ( #158 ) ) ;
#174 = PERSON_AND_ORGANIZATION_ROLE ( 'design_owner' ) ;
#175 = APPROVAL_ROLE ( '' ) ;
ENDSEC;
END-ISO-10303-21;
