ISO-10303-21;
HEADER;
FILE_DESCRIPTION (( 'STEP AP203' ),
    '1' );
FILE_NAME ('Web Model 14960_18338.step',
    '2021-06-28T14:47:38',
    ( '' ),
    ( '' ),
    'SwSTEP 2.0',
    'SolidWorks 2018',
    '' );
FILE_SCHEMA (( 'CONFIG_CONTROL_DESIGN' ));
ENDSEC;

DATA;
#1 = LOCAL_TIME ( 10, 47, 38.00000000000000000, #59 ) ;
#2 = CC_DESIGN_PERSON_AND_ORGANIZATION_ASSIGNMENT ( #167, #148, ( #159 ) ) ;
#3 = DATE_AND_TIME ( #30, #42 ) ;
#4 = UNCERTAINTY_MEASURE_WITH_UNIT (LENGTH_MEASURE( 1.000000000000000082E-05 ), #87, 'distance_accuracy_value', 'NONE');
#5 = LOCAL_TIME ( 10, 47, 38.00000000000000000, #81 ) ;
#6 = EDGE_CURVE ( 'NONE', #126, #106, #70, .T. ) ;
#7 = APPROVAL_PERSON_ORGANIZATION ( #153, #146, #36 ) ;
#8 = DIRECTION ( 'NONE',  ( -1.000000000000000000, -0.000000000000000000, -0.000000000000000000 ) ) ;
#9 = AXIS2_PLACEMENT_3D ( 'NONE', #40, #13, #25 ) ;
#10 = ADVANCED_FACE ( 'NONE', ( #166 ), #96, .T. ) ;
#11 = PLANE ( 'NONE',  #175 ) ;
#12 = EDGE_LOOP ( 'NONE', ( #47, #155, #24, #95 ) ) ;
#13 = DIRECTION ( 'NONE',  ( 0.000000000000000000, 0.000000000000000000, 1.000000000000000000 ) ) ;
#14 = SECURITY_CLASSIFICATION_LEVEL ( 'unclassified' ) ;
#15 = ORGANIZATION ( 'UNSPECIFIED', 'UNSPECIFIED', '' ) ;
#16 = EDGE_CURVE ( 'NONE', #126, #82, #158, .T. ) ;
#17 = APPROVAL_PERSON_ORGANIZATION ( #19, #28, #133 ) ;
#18 = CC_DESIGN_APPROVAL ( #28, ( #156 ) ) ;
#19 = PERSON_AND_ORGANIZATION ( #104, #15 ) ;
#20 = PLANE ( 'NONE',  #55 ) ;
#21 = PERSON_AND_ORGANIZATION ( #104, #15 ) ;
#22 = CARTESIAN_POINT ( 'NONE',  ( 1.000000000000000000, 0.000000000000000000, 0.000000000000000000 ) ) ;
#23 = APPLICATION_PROTOCOL_DEFINITION ( 'international standard', 'config_control_design', 1994, #171 ) ;
#24 = ORIENTED_EDGE ( 'NONE', *, *, #152, .T. ) ;
#25 = DIRECTION ( 'NONE',  ( 1.000000000000000000, 0.000000000000000000, 0.000000000000000000 ) ) ;
#26 = DATE_TIME_ROLE ( 'classification_date' ) ;
#27 = FACE_OUTER_BOUND ( 'NONE', #53, .T. ) ;
#28 = APPROVAL ( #119, 'UNSPECIFIED' ) ;
#29 = PERSON_AND_ORGANIZATION ( #104, #15 ) ;
#30 = CALENDAR_DATE ( 2021, 28, 6 ) ;
#31 = FACE_OUTER_BOUND ( 'NONE', #135, .T. ) ;
#32 = DIRECTION ( 'NONE',  ( 0.000000000000000000, 0.000000000000000000, 1.000000000000000000 ) ) ;
#33 = EDGE_CURVE ( 'NONE', #82, #126, #123, .T. ) ;
#34 = DIRECTION ( 'NONE',  ( -1.000000000000000000, -0.000000000000000000, -0.000000000000000000 ) ) ;
#35 = CARTESIAN_POINT ( 'NONE',  ( 1.000000000000000000, 0.000000000000000000, 7.500000000000000000 ) ) ;
#36 = APPROVAL_ROLE ( '' ) ;
#37 = PRODUCT_DEFINITION_SHAPE ( 'NONE', 'NONE',  #159 ) ;
#38 = APPROVAL ( #39, 'UNSPECIFIED' ) ;
#39 = APPROVAL_STATUS ( 'not_yet_approved' ) ;
#40 = CARTESIAN_POINT ( 'NONE',  ( 0.000000000000000000, 0.000000000000000000, 0.000000000000000000 ) ) ;
#41 = CALENDAR_DATE ( 2021, 28, 6 ) ;
#42 = LOCAL_TIME ( 10, 47, 38.00000000000000000, #77 ) ;
#43 = ADVANCED_FACE ( 'NONE', ( #31 ), #20, .T. ) ;
#44 = AXIS2_PLACEMENT_3D ( 'NONE', #143, #48, #61 ) ;
#45 = CIRCLE ( 'NONE', #44, 7.500000000000000000 ) ;
#46 = CARTESIAN_POINT ( 'NONE',  ( 1.000000000000000000, 9.184850993605147944E-16, -7.500000000000000000 ) ) ;
#47 = ORIENTED_EDGE ( 'NONE', *, *, #6, .F. ) ;
#48 = DIRECTION ( 'NONE',  ( 1.000000000000000000, 0.000000000000000000, 0.000000000000000000 ) ) ;
#49 = CC_DESIGN_PERSON_AND_ORGANIZATION_ASSIGNMENT ( #68, #120, ( #156 ) ) ;
#50 = APPROVAL_ROLE ( '' ) ;
#51 = EDGE_CURVE ( 'NONE', #106, #73, #45, .T. ) ;
#52 = APPLICATION_CONTEXT ( 'configuration controlled 3d designs of mechanical parts and assemblies' ) ;
#53 = EDGE_LOOP ( 'NONE', ( #170, #60 ) ) ;
#54 = DATE_TIME_ROLE ( 'creation_date' ) ;
#55 = AXIS2_PLACEMENT_3D ( 'NONE', #76, #160, #63 ) ;
#56 = COORDINATED_UNIVERSAL_TIME_OFFSET ( 5, 0, .BEHIND. ) ;
#57 = CC_DESIGN_SECURITY_CLASSIFICATION ( #116, ( #156 ) ) ;
#58 = VECTOR ( 'NONE', #99, 1000.000000000000000 ) ;
#59 = COORDINATED_UNIVERSAL_TIME_OFFSET ( 5, 0, .BEHIND. ) ;
#60 = ORIENTED_EDGE ( 'NONE', *, *, #51, .F. ) ;
#61 = DIRECTION ( 'NONE',  ( 0.000000000000000000, 0.000000000000000000, -1.000000000000000000 ) ) ;
#62 = EDGE_CURVE ( 'NONE', #73, #106, #80, .T. ) ;
#63 = DIRECTION ( 'NONE',  ( 0.000000000000000000, 0.000000000000000000, -1.000000000000000000 ) ) ;
#64 = DIRECTION ( 'NONE',  ( 0.000000000000000000, 0.000000000000000000, 1.000000000000000000 ) ) ;
#65 =( NAMED_UNIT ( * ) SI_UNIT ( $, .STERADIAN. ) SOLID_ANGLE_UNIT ( ) );
#66 = CC_DESIGN_PERSON_AND_ORGANIZATION_ASSIGNMENT ( #29, #149, ( #116 ) ) ;
#67 = APPLICATION_PROTOCOL_DEFINITION ( 'international standard', 'config_control_design', 1994, #52 ) ;
#68 = PERSON_AND_ORGANIZATION ( #104, #15 ) ;
#69 = SHAPE_DEFINITION_REPRESENTATION ( #37, #157 ) ;
#70 = LINE ( 'NONE', #46, #58 ) ;
#71 = APPROVAL_PERSON_ORGANIZATION ( #21, #38, #50 ) ;
#72 = DIRECTION ( 'NONE',  ( 0.000000000000000000, 0.000000000000000000, -1.000000000000000000 ) ) ;
#73 = VERTEX_POINT ( 'NONE', #168 ) ;
#74 = CARTESIAN_POINT ( 'NONE',  ( 1.000000000000000000, 9.184850993605147944E-16, -7.500000000000000000 ) ) ;
#75 = DIRECTION ( 'NONE',  ( 1.000000000000000000, 0.000000000000000000, 0.000000000000000000 ) ) ;
#76 = CARTESIAN_POINT ( 'NONE',  ( 1.000000000000000000, 0.000000000000000000, 0.000000000000000000 ) ) ;
#77 = COORDINATED_UNIVERSAL_TIME_OFFSET ( 5, 0, .BEHIND. ) ;
#78 = EDGE_LOOP ( 'NONE', ( #113, #85, #151, #130 ) ) ;
#79 = ORIENTED_EDGE ( 'NONE', *, *, #33, .T. ) ;
#80 = CIRCLE ( 'NONE', #150, 7.500000000000000000 ) ;
#81 = COORDINATED_UNIVERSAL_TIME_OFFSET ( 5, 0, .BEHIND. ) ;
#82 = VERTEX_POINT ( 'NONE', #161 ) ;
#83 = CALENDAR_DATE ( 2021, 28, 6 ) ;
#84 = CARTESIAN_POINT ( 'NONE',  ( -1.000000000000000000, 0.000000000000000000, 0.000000000000000000 ) ) ;
#85 = ORIENTED_EDGE ( 'NONE', *, *, #6, .T. ) ;
#86 = DIRECTION ( 'NONE',  ( -1.000000000000000000, -0.000000000000000000, -0.000000000000000000 ) ) ;
#87 =( LENGTH_UNIT ( ) NAMED_UNIT ( * ) SI_UNIT ( .MILLI., .METRE. ) );
#88 = CARTESIAN_POINT ( 'NONE',  ( -1.000000000000000000, 9.184850993605147944E-16, -7.500000000000000000 ) ) ;
#89 = APPROVAL_DATE_TIME ( #147, #38 ) ;
#90 = MECHANICAL_CONTEXT ( 'NONE', #52, 'mechanical' ) ;
#91 = COORDINATED_UNIVERSAL_TIME_OFFSET ( 5, 0, .BEHIND. ) ;
#92 =( GEOMETRIC_REPRESENTATION_CONTEXT ( 3 ) GLOBAL_UNCERTAINTY_ASSIGNED_CONTEXT ( ( #4 ) ) GLOBAL_UNIT_ASSIGNED_CONTEXT ( ( #87, #93, #65 ) ) REPRESENTATION_CONTEXT ( 'NONE', 'WORKASPACE' ) );
#93 =( NAMED_UNIT ( * ) PLANE_ANGLE_UNIT ( ) SI_UNIT ( $, .RADIAN. ) );
#94 = CC_DESIGN_DATE_AND_TIME_ASSIGNMENT ( #125, #26, ( #116 ) ) ;
#95 = ORIENTED_EDGE ( 'NONE', *, *, #62, .T. ) ;
#96 = CYLINDRICAL_SURFACE ( 'NONE', #124, 7.500000000000000000 ) ;
#97 = AXIS2_PLACEMENT_3D ( 'NONE', #169, #115, #145 ) ;
#98 = CC_DESIGN_APPROVAL ( #146, ( #159 ) ) ;
#99 = DIRECTION ( 'NONE',  ( -1.000000000000000000, -0.000000000000000000, -0.000000000000000000 ) ) ;
#100 = DIRECTION ( 'NONE',  ( 0.000000000000000000, 0.000000000000000000, -1.000000000000000000 ) ) ;
#101 = PERSON_AND_ORGANIZATION ( #104, #15 ) ;
#102 = PERSON_AND_ORGANIZATION_ROLE ( 'design_owner' ) ;
#103 = PERSON_AND_ORGANIZATION_ROLE ( 'creator' ) ;
#104 = PERSON ( 'UNSPECIFIED', 'UNSPECIFIED', 'UNSPECIFIED', ('UNSPECIFIED'), ('UNSPECIFIED'), ('UNSPECIFIED') ) ;
#105 = APPROVAL_DATE_TIME ( #3, #28 ) ;
#106 = VERTEX_POINT ( 'NONE', #88 ) ;
#107 = CALENDAR_DATE ( 2021, 28, 6 ) ;
#108 = VECTOR ( 'NONE', #34, 1000.000000000000000 ) ;
#109 = CC_DESIGN_APPROVAL ( #38, ( #116 ) ) ;
#110 = PRODUCT_RELATED_PRODUCT_CATEGORY ( 'detail', '', ( #163 ) ) ;
#111 = ADVANCED_FACE ( 'NONE', ( #142 ), #134, .T. ) ;
#112 = LOCAL_TIME ( 10, 47, 38.00000000000000000, #56 ) ;
#113 = ORIENTED_EDGE ( 'NONE', *, *, #16, .F. ) ;
#114 = DIRECTION ( 'NONE',  ( 1.000000000000000000, 0.000000000000000000, 0.000000000000000000 ) ) ;
#115 = DIRECTION ( 'NONE',  ( 1.000000000000000000, 0.000000000000000000, 0.000000000000000000 ) ) ;
#116 = SECURITY_CLASSIFICATION ( '', '', #14 ) ;
#117 = DIRECTION ( 'NONE',  ( 0.000000000000000000, 0.000000000000000000, -1.000000000000000000 ) ) ;
#118 = ORIENTED_EDGE ( 'NONE', *, *, #16, .T. ) ;
#119 = APPROVAL_STATUS ( 'not_yet_approved' ) ;
#120 = PERSON_AND_ORGANIZATION_ROLE ( 'design_supplier' ) ;
#121 = MANIFOLD_SOLID_BREP ( 'Boss-Extrude1', #174 ) ;
#122 = CC_DESIGN_DATE_AND_TIME_ASSIGNMENT ( #165, #54, ( #159 ) ) ;
#123 = CIRCLE ( 'NONE', #162, 7.500000000000000000 ) ;
#124 = AXIS2_PLACEMENT_3D ( 'NONE', #141, #86, #64 ) ;
#125 = DATE_AND_TIME ( #107, #1 ) ;
#126 = VERTEX_POINT ( 'NONE', #74 ) ;
#127 = AXIS2_PLACEMENT_3D ( 'NONE', #22, #8, #32 ) ;
#128 = LOCAL_TIME ( 10, 47, 38.00000000000000000, #91 ) ;
#129 = CARTESIAN_POINT ( 'NONE',  ( 1.000000000000000000, 0.000000000000000000, 0.000000000000000000 ) ) ;
#130 = ORIENTED_EDGE ( 'NONE', *, *, #152, .F. ) ;
#131 = DIRECTION ( 'NONE',  ( 1.000000000000000000, 0.000000000000000000, 0.000000000000000000 ) ) ;
#132 = CC_DESIGN_PERSON_AND_ORGANIZATION_ASSIGNMENT ( #173, #103, ( #156 ) ) ;
#133 = APPROVAL_ROLE ( '' ) ;
#134 = CYLINDRICAL_SURFACE ( 'NONE', #127, 7.500000000000000000 ) ;
#135 = EDGE_LOOP ( 'NONE', ( #79, #118 ) ) ;
#136 = APPROVAL_STATUS ( 'not_yet_approved' ) ;
#137 = APPROVAL_DATE_TIME ( #172, #146 ) ;
#138 = LINE ( 'NONE', #35, #108 ) ;
#139 = DESIGN_CONTEXT ( 'detailed design', #171, 'design' ) ;
#140 = CALENDAR_DATE ( 2021, 28, 6 ) ;
#141 = CARTESIAN_POINT ( 'NONE',  ( 1.000000000000000000, 0.000000000000000000, 0.000000000000000000 ) ) ;
#142 = FACE_OUTER_BOUND ( 'NONE', #78, .T. ) ;
#143 = CARTESIAN_POINT ( 'NONE',  ( -1.000000000000000000, 0.000000000000000000, 0.000000000000000000 ) ) ;
#144 = CARTESIAN_POINT ( 'NONE',  ( -1.000000000000000000, 0.000000000000000000, 0.000000000000000000 ) ) ;
#145 = DIRECTION ( 'NONE',  ( 0.000000000000000000, 0.000000000000000000, -1.000000000000000000 ) ) ;
#146 = APPROVAL ( #136, 'UNSPECIFIED' ) ;
#147 = DATE_AND_TIME ( #140, #5 ) ;
#148 = PERSON_AND_ORGANIZATION_ROLE ( 'creator' ) ;
#149 = PERSON_AND_ORGANIZATION_ROLE ( 'classification_officer' ) ;
#150 = AXIS2_PLACEMENT_3D ( 'NONE', #84, #75, #100 ) ;
#151 = ORIENTED_EDGE ( 'NONE', *, *, #51, .T. ) ;
#152 = EDGE_CURVE ( 'NONE', #82, #73, #138, .T. ) ;
#153 = PERSON_AND_ORGANIZATION ( #104, #15 ) ;
#154 = ADVANCED_FACE ( 'NONE', ( #27 ), #11, .F. ) ;
#155 = ORIENTED_EDGE ( 'NONE', *, *, #33, .F. ) ;
#156 = PRODUCT_DEFINITION_FORMATION_WITH_SPECIFIED_SOURCE ( 'ANY', '', #163, .NOT_KNOWN. ) ;
#157 = ADVANCED_BREP_SHAPE_REPRESENTATION ( 'Web Model 14960_18338', ( #121, #9 ), #92 ) ;
#158 = CIRCLE ( 'NONE', #97, 7.500000000000000000 ) ;
#159 = PRODUCT_DEFINITION ( 'UNKNOWN', '', #156, #139 ) ;
#160 = DIRECTION ( 'NONE',  ( 1.000000000000000000, 0.000000000000000000, 0.000000000000000000 ) ) ;
#161 = CARTESIAN_POINT ( 'NONE',  ( 1.000000000000000000, 0.000000000000000000, 7.500000000000000000 ) ) ;
#162 = AXIS2_PLACEMENT_3D ( 'NONE', #129, #114, #72 ) ;
#163 = PRODUCT ( 'Web Model 14960_18338', 'Web Model 14960_18338', '', ( #90 ) ) ;
#164 = CC_DESIGN_PERSON_AND_ORGANIZATION_ASSIGNMENT ( #101, #102, ( #163 ) ) ;
#165 = DATE_AND_TIME ( #41, #128 ) ;
#166 = FACE_OUTER_BOUND ( 'NONE', #12, .T. ) ;
#167 = PERSON_AND_ORGANIZATION ( #104, #15 ) ;
#168 = CARTESIAN_POINT ( 'NONE',  ( -1.000000000000000000, 0.000000000000000000, 7.500000000000000000 ) ) ;
#169 = CARTESIAN_POINT ( 'NONE',  ( 1.000000000000000000, 0.000000000000000000, 0.000000000000000000 ) ) ;
#170 = ORIENTED_EDGE ( 'NONE', *, *, #62, .F. ) ;
#171 = APPLICATION_CONTEXT ( 'configuration controlled 3d designs of mechanical parts and assemblies' ) ;
#172 = DATE_AND_TIME ( #83, #112 ) ;
#173 = PERSON_AND_ORGANIZATION ( #104, #15 ) ;
#174 = CLOSED_SHELL ( 'NONE', ( #111, #10, #43, #154 ) ) ;
#175 = AXIS2_PLACEMENT_3D ( 'NONE', #144, #131, #117 ) ;
ENDSEC;
END-ISO-10303-21;
