ISO-10303-21;
HEADER;
FILE_DESCRIPTION (( 'STEP AP203' ),
    '1' );
FILE_NAME ('24972-E0W.STEP',
    '2012-09-28T16:13:22',
    ( 'Admin' ),
    ( 'Thorlabs, Inc.' ),
    'SwSTEP 2.0',
    'SolidWorks 2011',
    '' );
FILE_SCHEMA (( 'CONFIG_CONTROL_DESIGN' ));
ENDSEC;

DATA;
#1 = UNCERTAINTY_MEASURE_WITH_UNIT (LENGTH_MEASURE( 1.000000000000000100E-005 ), #215, 'distance_accuracy_value', 'NONE');
#2 = PERSON ( 'UNSPECIFIED', 'UNSPECIFIED', 'UNSPECIFIED', ('UNSPECIFIED'), ('UNSPECIFIED'), ('UNSPECIFIED') ) ;
#3 = PRODUCT ( '24972-E0W', '24972-E0W', '', ( #223 ) ) ;
#4 = DIRECTION ( 'NONE',  ( 0.0000000000000000000, 0.0000000000000000000, -1.000000000000000000 ) ) ;
#5 = CARTESIAN_POINT ( 'NONE',  ( 0.006393968114355545700, 0.0000000000000000000, -20.08999911124284700 ) ) ;
#6 = DIRECTION ( 'NONE',  ( 0.0000000000000000000, 0.0000000000000000000, -1.000000000000000000 ) ) ;
#7 = DIRECTION ( 'NONE',  ( -1.000000000000000000, 0.0000000000000000000, 0.0000000000000000000 ) ) ;
#8 = CARTESIAN_POINT ( 'NONE',  ( 0.0000000000000000000, 0.0000000000000000000, -0.9585727311330685100 ) ) ;
#9 = DIRECTION ( 'NONE',  ( 0.0000000000000000000, 0.0000000000000000000, -1.000000000000000000 ) ) ;
#10 = DIRECTION ( 'NONE',  ( -1.000000000000000000, 0.0000000000000000000, 0.0000000000000000000 ) ) ;
#11 = CARTESIAN_POINT ( 'NONE',  ( 0.0000000000000000000, 0.0000000000000000000, -2.909999999999995700 ) ) ;
#12 = DIRECTION ( 'NONE',  ( -0.0000000000000000000, -0.0000000000000000000, 1.000000000000000000 ) ) ;
#13 = DIRECTION ( 'NONE',  ( 1.000000000000000000, 0.0000000000000000000, 0.0000000000000000000 ) ) ;
#14 = CARTESIAN_POINT ( 'NONE',  ( 0.0000000000000000000, 0.0000000000000000000, -2.768578643762689600 ) ) ;
#15 = DIRECTION ( 'NONE',  ( -0.0000000000000000000, -0.0000000000000000000, 1.000000000000000000 ) ) ;
#16 = DIRECTION ( 'NONE',  ( 1.000000000000000000, 0.0000000000000000000, 0.0000000000000000000 ) ) ;
#17 = CARTESIAN_POINT ( 'NONE',  ( 12.69999999999999900, 1.555301434917138400E-015, -0.9585727311330685100 ) ) ;
#18 = DIRECTION ( 'NONE',  ( 0.7071067811865519000, 8.659560562354987100E-017, -0.7071067811865431300 ) ) ;
#19 = CARTESIAN_POINT ( 'NONE',  ( -12.69999999999999900, 1.555301434917138400E-015, 35.94000182510855300 ) ) ;
#20 = DIRECTION ( 'NONE',  ( -0.0000000000000000000, -0.0000000000000000000, 1.000000000000000000 ) ) ;
#21 = CARTESIAN_POINT ( 'NONE',  ( 0.0000000000000000000, 0.0000000000000000000, -0.9585727311330685100 ) ) ;
#22 = DIRECTION ( 'NONE',  ( -0.0000000000000000000, -0.0000000000000000000, 1.000000000000000000 ) ) ;
#23 = DIRECTION ( 'NONE',  ( 1.000000000000000000, 0.0000000000000000000, 0.0000000000000000000 ) ) ;
#24 = CARTESIAN_POINT ( 'NONE',  ( -0.006393968114355545700, 7.830352585095756900E-019, -20.08999911124284700 ) ) ;
#25 = DIRECTION ( 'NONE',  ( 1.224646799147353200E-016, 1.000000000000000000, 0.0000000000000000000 ) ) ;
#26 = DIRECTION ( 'NONE',  ( -1.000000000000000000, 1.224646799147353200E-016, 0.0000000000000000000 ) ) ;
#27 = CARTESIAN_POINT ( 'NONE',  ( 0.0000000000000000000, 0.0000000000000000000, -0.9585727311330685100 ) ) ;
#28 = DIRECTION ( 'NONE',  ( -0.0000000000000000000, -0.0000000000000000000, 1.000000000000000000 ) ) ;
#29 = DIRECTION ( 'NONE',  ( 1.000000000000000000, 0.0000000000000000000, 0.0000000000000000000 ) ) ;
#30 = CARTESIAN_POINT ( 'NONE',  ( 12.69999999999999900, 0.0000000000000000000, 35.94000182510855300 ) ) ;
#31 = DIRECTION ( 'NONE',  ( -0.0000000000000000000, -0.0000000000000000000, 1.000000000000000000 ) ) ;
#32 = CARTESIAN_POINT ( 'NONE',  ( 0.0000000000000000000, 0.0000000000000000000, -2.909999999999995700 ) ) ;
#33 = DIRECTION ( 'NONE',  ( -0.0000000000000000000, -0.0000000000000000000, 1.000000000000000000 ) ) ;
#34 = DIRECTION ( 'NONE',  ( 1.000000000000000000, 0.0000000000000000000, 0.0000000000000000000 ) ) ;
#35 = CARTESIAN_POINT ( 'NONE',  ( 12.55857864376269000, 0.0000000000000000000, -2.909999999999995700 ) ) ;
#36 = DIRECTION ( 'NONE',  ( 0.7071067811865562300, 0.0000000000000000000, 0.7071067811865388000 ) ) ;
#37 = CARTESIAN_POINT ( 'NONE',  ( 0.0000000000000000000, 0.0000000000000000000, -2.768578643762689600 ) ) ;
#38 = DIRECTION ( 'NONE',  ( -0.0000000000000000000, -0.0000000000000000000, 1.000000000000000000 ) ) ;
#39 = DIRECTION ( 'NONE',  ( 1.000000000000000000, 0.0000000000000000000, 0.0000000000000000000 ) ) ;
#40 = DIRECTION ( 'NONE',  ( -0.7071067811865562300, 8.659560562355040100E-017, 0.7071067811865388000 ) ) ;
#41 = PLANE ( 'NONE',  #263 ) ;
#42 = DIRECTION ( 'NONE',  ( 0.0000000000000000000, -0.0000000000000000000, 1.000000000000000000 ) ) ;
#43 = DIRECTION ( 'NONE',  ( -0.0000000000000000000, -0.0000000000000000000, 1.000000000000000000 ) ) ;
#44 = DIRECTION ( 'NONE',  ( 1.000000000000000000, 0.0000000000000000000, 0.0000000000000000000 ) ) ;
#45 = CARTESIAN_POINT ( 'NONE',  ( 0.0000000000000000000, 0.0000000000000000000, -20.08999911124284700 ) ) ;
#46 = DIRECTION ( 'NONE',  ( -0.0000000000000000000, -0.0000000000000000000, 1.000000000000000000 ) ) ;
#47 = DIRECTION ( 'NONE',  ( 1.000000000000000000, 0.0000000000000000000, 0.0000000000000000000 ) ) ;
#48 = CARTESIAN_POINT ( 'NONE',  ( 0.0000000000000000000, 0.0000000000000000000, -0.8171513748957623900 ) ) ;
#49 = DIRECTION ( 'NONE',  ( -0.0000000000000000000, -0.0000000000000000000, 1.000000000000000000 ) ) ;
#50 = DIRECTION ( 'NONE',  ( 1.000000000000000000, 0.0000000000000000000, 0.0000000000000000000 ) ) ;
#51 = CARTESIAN_POINT ( 'NONE',  ( -12.55857864376269000, 1.537982313792428700E-015, -2.909999999999995700 ) ) ;
#52 = CARTESIAN_POINT ( 'NONE',  ( 0.0000000000000000000, 0.0000000000000000000, -2.909999999999999300 ) ) ;
#53 = DIRECTION ( 'NONE',  ( 1.000000000000000000, 0.0000000000000000000, 0.0000000000000000000 ) ) ;
#54 = CARTESIAN_POINT ( 'NONE',  ( 0.0000000000000000000, 0.0000000000000000000, -20.08999911124284700 ) ) ;
#55 = DIRECTION ( 'NONE',  ( 0.0000000000000000000, -1.000000000000000000, 0.0000000000000000000 ) ) ;
#56 = CARTESIAN_POINT ( 'NONE',  ( 0.0000000000000000000, 0.0000000000000000000, -0.8171513748957623900 ) ) ;
#57 = CARTESIAN_POINT ( 'NONE',  ( 0.0000000000000000000, 0.0000000000000000000, -0.9585727311330685100 ) ) ;
#58 = DIRECTION ( 'NONE',  ( 1.000000000000000000, 0.0000000000000000000, 0.0000000000000000000 ) ) ;
#59 = DIRECTION ( 'NONE',  ( -0.0000000000000000000, -0.0000000000000000000, 1.000000000000000000 ) ) ;
#60 = CARTESIAN_POINT ( 'NONE',  ( 0.0000000000000000000, 0.0000000000000000000, -2.909999999999995700 ) ) ;
#61 = DIRECTION ( 'NONE',  ( -0.0000000000000000000, -0.0000000000000000000, 1.000000000000000000 ) ) ;
#62 = DIRECTION ( 'NONE',  ( 1.000000000000000000, 0.0000000000000000000, 0.0000000000000000000 ) ) ;
#63 = CARTESIAN_POINT ( 'NONE',  ( 0.0000000000000000000, 0.0000000000000000000, 35.94000182510855300 ) ) ;
#64 = DIRECTION ( 'NONE',  ( -0.0000000000000000000, -0.0000000000000000000, 1.000000000000000000 ) ) ;
#65 = DIRECTION ( 'NONE',  ( 1.000000000000000000, 0.0000000000000000000, 0.0000000000000000000 ) ) ;
#66 = LOCAL_TIME ( 12, 13, 22.00000000000000000, #194 ) ;
#67 = EDGE_CURVE ( 'NONE', #108, #109, #243, .T. ) ;
#68 = ADVANCED_FACE ( 'NONE', ( #151 ), #240, .T. ) ;
#69 = ADVANCED_FACE ( 'NONE', ( #150 ), #246, .T. ) ;
#70 = ADVANCED_FACE ( 'NONE', ( #152 ), #247, .T. ) ;
#71 = EDGE_CURVE ( 'NONE', #112, #111, #248, .T. ) ;
#72 = EDGE_CURVE ( 'NONE', #113, #106, #154, .T. ) ;
#73 = EDGE_CURVE ( 'NONE', #112, #110, #155, .T. ) ;
#74 = EDGE_CURVE ( 'NONE', #110, #106, #254, .T. ) ;
#75 = EDGE_CURVE ( 'NONE', #114, #107, #257, .T. ) ;
#76 =( GEOMETRIC_REPRESENTATION_CONTEXT ( 3 ) GLOBAL_UNCERTAINTY_ASSIGNED_CONTEXT ( ( #1 ) ) GLOBAL_UNIT_ASSIGNED_CONTEXT ( ( #215, #216, #217 ) ) REPRESENTATION_CONTEXT ( 'NONE', 'WORKASPACE' ) );
#77 = EDGE_CURVE ( 'NONE', #106, #110, #259, .T. ) ;
#78 = EDGE_CURVE ( 'NONE', #111, #106, #156, .T. ) ;
#79 = ADVANCED_FACE ( 'NONE', ( #157 ), #252, .T. ) ;
#80 = EDGE_CURVE ( 'NONE', #109, #111, #153, .T. ) ;
#81 = EDGE_CURVE ( 'NONE', #111, #112, #264, .T. ) ;
#82 = LOCAL_TIME ( 12, 13, 22.00000000000000000, #172 ) ;
#83 = EDGE_CURVE ( 'NONE', #108, #112, #159, .T. ) ;
#84 = ADVANCED_FACE ( 'NONE', ( #160 ), #41, .F. ) ;
#85 = ADVANCED_FACE ( 'NONE', ( #158 ), #267, .T. ) ;
#86 = ADVANCED_FACE ( 'NONE', ( #161 ), #270, .T. ) ;
#87 = EDGE_CURVE ( 'NONE', #114, #113, #250, .T. ) ;
#88 = EDGE_CURVE ( 'NONE', #113, #107, #274, .T. ) ;
#89 = EDGE_CURVE ( 'NONE', #113, #114, #272, .T. ) ;
#90 = ADVANCED_FACE ( 'NONE', ( #163 ), #162, .T. ) ;
#91 = LOCAL_TIME ( 12, 13, 22.00000000000000000, #182 ) ;
#92 = LOCAL_TIME ( 12, 13, 22.00000000000000000, #177 ) ;
#93 = EDGE_CURVE ( 'NONE', #109, #108, #271, .T. ) ;
#94 = LOCAL_TIME ( 12, 13, 22.00000000000000000, #189 ) ;
#95 = EDGE_CURVE ( 'NONE', #114, #110, #165, .T. ) ;
#96 = ADVANCED_FACE ( 'NONE', ( #166 ), #164, .T. ) ;
#97 = MANIFOLD_SOLID_BREP ( '24972-001-1-solid1', #137 ) ;
#98 = ADVANCED_BREP_SHAPE_REPRESENTATION ( '24972-E0W', ( #97, #281 ), #76 ) ;
#99 = ORIENTED_EDGE ( 'NONE', *, *, #67, .F. ) ;
#100 = ORIENTED_EDGE ( 'NONE', *, *, #93, .F. ) ;
#101 = ORIENTED_EDGE ( 'NONE', *, *, #88, .T. ) ;
#102 = ORIENTED_EDGE ( 'NONE', *, *, #83, .F. ) ;
#103 = ORIENTED_EDGE ( 'NONE', *, *, #67, .T. ) ;
#104 = ORIENTED_EDGE ( 'NONE', *, *, #80, .T. ) ;
#105 = ORIENTED_EDGE ( 'NONE', *, *, #71, .F. ) ;
#106 = VERTEX_POINT ( 'NONE', #206 ) ;
#107 = VERTEX_POINT ( 'NONE', #207 ) ;
#108 = VERTEX_POINT ( 'NONE', #208 ) ;
#109 = VERTEX_POINT ( 'NONE', #209 ) ;
#110 = VERTEX_POINT ( 'NONE', #210 ) ;
#111 = VERTEX_POINT ( 'NONE', #211 ) ;
#112 = VERTEX_POINT ( 'NONE', #212 ) ;
#113 = VERTEX_POINT ( 'NONE', #213 ) ;
#114 = VERTEX_POINT ( 'NONE', #214 ) ;
#115 = ORIENTED_EDGE ( 'NONE', *, *, #83, .T. ) ;
#116 = ORIENTED_EDGE ( 'NONE', *, *, #80, .F. ) ;
#117 = ORIENTED_EDGE ( 'NONE', *, *, #89, .T. ) ;
#118 = ORIENTED_EDGE ( 'NONE', *, *, #73, .T. ) ;
#119 = ORIENTED_EDGE ( 'NONE', *, *, #77, .F. ) ;
#120 = ORIENTED_EDGE ( 'NONE', *, *, #93, .T. ) ;
#121 = ORIENTED_EDGE ( 'NONE', *, *, #81, .F. ) ;
#122 = ORIENTED_EDGE ( 'NONE', *, *, #88, .F. ) ;
#123 = ORIENTED_EDGE ( 'NONE', *, *, #75, .F. ) ;
#124 = ORIENTED_EDGE ( 'NONE', *, *, #81, .T. ) ;
#125 = ORIENTED_EDGE ( 'NONE', *, *, #78, .F. ) ;
#126 = ORIENTED_EDGE ( 'NONE', *, *, #75, .T. ) ;
#127 = ORIENTED_EDGE ( 'NONE', *, *, #87, .T. ) ;
#128 = EDGE_LOOP ( 'NONE', ( #124, #118, #119, #125 ) ) ;
#129 = EDGE_LOOP ( 'NONE', ( #140, #139, #141, #138 ) ) ;
#130 = EDGE_LOOP ( 'NONE', ( #117, #126, #122 ) ) ;
#131 = EDGE_LOOP ( 'NONE', ( #100, #99 ) ) ;
#132 = EDGE_LOOP ( 'NONE', ( #120, #115, #121, #116 ) ) ;
#133 = EDGE_LOOP ( 'NONE', ( #123, #127, #101 ) ) ;
#134 = EDGE_LOOP ( 'NONE', ( #102, #103, #104, #105 ) ) ;
#135 = EDGE_LOOP ( 'NONE', ( #143, #147, #146, #144 ) ) ;
#136 = EDGE_LOOP ( 'NONE', ( #142, #148, #149, #145 ) ) ;
#137 = CLOSED_SHELL ( 'NONE', ( #68, #96, #70, #85, #86, #84, #79, #90, #69 ) ) ;
#138 = ORIENTED_EDGE ( 'NONE', *, *, #95, .F. ) ;
#139 = ORIENTED_EDGE ( 'NONE', *, *, #72, .T. ) ;
#140 = ORIENTED_EDGE ( 'NONE', *, *, #89, .F. ) ;
#141 = ORIENTED_EDGE ( 'NONE', *, *, #77, .T. ) ;
#142 = ORIENTED_EDGE ( 'NONE', *, *, #72, .F. ) ;
#143 = ORIENTED_EDGE ( 'NONE', *, *, #73, .F. ) ;
#144 = ORIENTED_EDGE ( 'NONE', *, *, #74, .F. ) ;
#145 = ORIENTED_EDGE ( 'NONE', *, *, #74, .T. ) ;
#146 = ORIENTED_EDGE ( 'NONE', *, *, #78, .T. ) ;
#147 = ORIENTED_EDGE ( 'NONE', *, *, #71, .T. ) ;
#148 = ORIENTED_EDGE ( 'NONE', *, *, #87, .F. ) ;
#149 = ORIENTED_EDGE ( 'NONE', *, *, #95, .T. ) ;
#150 = FACE_OUTER_BOUND ( 'NONE', #136, .T. ) ;
#151 = FACE_OUTER_BOUND ( 'NONE', #129, .T. ) ;
#152 = FACE_OUTER_BOUND ( 'NONE', #132, .T. ) ;
#153 = LINE ( 'NONE', #35, #265 ) ;
#154 = LINE ( 'NONE', #17, #253 ) ;
#155 = LINE ( 'NONE', #19, #255 ) ;
#156 = LINE ( 'NONE', #30, #262 ) ;
#157 = FACE_OUTER_BOUND ( 'NONE', #134, .T. ) ;
#158 = FACE_OUTER_BOUND ( 'NONE', #130, .T. ) ;
#159 = LINE ( 'NONE', #51, #268 ) ;
#160 = FACE_OUTER_BOUND ( 'NONE', #131, .T. ) ;
#161 = FACE_OUTER_BOUND ( 'NONE', #133, .T. ) ;
#162 = CYLINDRICAL_SURFACE ( 'NONE', #276, 12.69999999999999900 ) ;
#163 = FACE_OUTER_BOUND ( 'NONE', #135, .T. ) ;
#164 = CYLINDRICAL_SURFACE ( 'NONE', #278, 12.69999999999999900 ) ;
#165 = LINE ( 'NONE', #201, #280 ) ;
#166 = FACE_OUTER_BOUND ( 'NONE', #128, .T. ) ;
#167 = ORGANIZATION ( 'UNSPECIFIED', 'UNSPECIFIED', '' ) ;
#168 = SHAPE_DEFINITION_REPRESENTATION ( #300, #98 ) ;
#169 = PERSON_AND_ORGANIZATION ( #2, #167 ) ;
#170 = PERSON_AND_ORGANIZATION ( #2, #167 ) ;
#171 = APPROVAL_PERSON_ORGANIZATION ( #170, #284, #228 ) ;
#172 = COORDINATED_UNIVERSAL_TIME_OFFSET ( 5, 0, .BEHIND. ) ;
#173 = CALENDAR_DATE ( 2012, 28, 9 ) ;
#174 = DATE_AND_TIME ( #173, #82 ) ;
#175 = APPROVAL_DATE_TIME ( #174, #284 ) ;
#176 = PERSON_AND_ORGANIZATION ( #2, #167 ) ;
#177 = COORDINATED_UNIVERSAL_TIME_OFFSET ( 5, 0, .BEHIND. ) ;
#178 = CALENDAR_DATE ( 2012, 28, 9 ) ;
#179 = DATE_AND_TIME ( #178, #92 ) ;
#180 = PERSON_AND_ORGANIZATION ( #2, #167 ) ;
#181 = APPROVAL_PERSON_ORGANIZATION ( #180, #289, #232 ) ;
#182 = COORDINATED_UNIVERSAL_TIME_OFFSET ( 5, 0, .BEHIND. ) ;
#183 = CALENDAR_DATE ( 2012, 28, 9 ) ;
#184 = DATE_AND_TIME ( #183, #91 ) ;
#185 = APPROVAL_DATE_TIME ( #184, #289 ) ;
#186 = PERSON_AND_ORGANIZATION ( #2, #167 ) ;
#187 = PERSON_AND_ORGANIZATION ( #2, #167 ) ;
#188 = PERSON_AND_ORGANIZATION ( #2, #167 ) ;
#189 = COORDINATED_UNIVERSAL_TIME_OFFSET ( 5, 0, .BEHIND. ) ;
#190 = CALENDAR_DATE ( 2012, 28, 9 ) ;
#191 = DATE_AND_TIME ( #190, #94 ) ;
#192 = PERSON_AND_ORGANIZATION ( #2, #167 ) ;
#193 = APPROVAL_PERSON_ORGANIZATION ( #192, #296, #239 ) ;
#194 = COORDINATED_UNIVERSAL_TIME_OFFSET ( 5, 0, .BEHIND. ) ;
#195 = CALENDAR_DATE ( 2012, 28, 9 ) ;
#196 = DATE_AND_TIME ( #195, #66 ) ;
#197 = APPROVAL_DATE_TIME ( #196, #296 ) ;
#198 = CARTESIAN_POINT ( 'NONE',  ( 0.0000000000000000000, 0.0000000000000000000, -2.909999999999995700 ) ) ;
#199 = DIRECTION ( 'NONE',  ( -0.0000000000000000000, -0.0000000000000000000, 1.000000000000000000 ) ) ;
#200 = DIRECTION ( 'NONE',  ( 1.000000000000000000, 0.0000000000000000000, 0.0000000000000000000 ) ) ;
#201 = CARTESIAN_POINT ( 'NONE',  ( -12.69999999999999900, 0.0000000000000000000, -0.9585727311330685100 ) ) ;
#202 = DIRECTION ( 'NONE',  ( -0.7071067811865519000, 0.0000000000000000000, -0.7071067811865431300 ) ) ;
#203 = CARTESIAN_POINT ( 'NONE',  ( 0.0000000000000000000, 0.0000000000000000000, 35.94000182510855300 ) ) ;
#204 = DIRECTION ( 'NONE',  ( -0.0000000000000000000, -0.0000000000000000000, 1.000000000000000000 ) ) ;
#205 = DIRECTION ( 'NONE',  ( 1.000000000000000000, 0.0000000000000000000, 0.0000000000000000000 ) ) ;
#206 = CARTESIAN_POINT ( 'NONE',  ( 12.69999999999999900, 0.0000000000000000000, -0.9585727311330685100 ) ) ;
#207 = CARTESIAN_POINT ( 'NONE',  ( 0.0000000000000000000, 0.0000000000000000000, 2.909999999999999300 ) ) ;
#208 = CARTESIAN_POINT ( 'NONE',  ( -12.55857864376269000, 1.546641874354783400E-015, -2.909999999999995700 ) ) ;
#209 = CARTESIAN_POINT ( 'NONE',  ( 12.55857864376269000, 0.0000000000000000000, -2.909999999999995700 ) ) ;
#210 = CARTESIAN_POINT ( 'NONE',  ( -12.69999999999999900, 1.555301434917138400E-015, -0.9585727311330685100 ) ) ;
#211 = CARTESIAN_POINT ( 'NONE',  ( 12.69999999999999900, 0.0000000000000000000, -2.768578643762689600 ) ) ;
#212 = CARTESIAN_POINT ( 'NONE',  ( -12.69999999999999900, 1.555301434917138400E-015, -2.768578643762689600 ) ) ;
#213 = CARTESIAN_POINT ( 'NONE',  ( 12.55857864376269400, 0.0000000000000000000, -0.8171513748957623900 ) ) ;
#214 = CARTESIAN_POINT ( 'NONE',  ( -12.55857864376269400, 1.537982313792429300E-015, -0.8171513748957623900 ) ) ;
#215 =( LENGTH_UNIT ( ) NAMED_UNIT ( * ) SI_UNIT ( .MILLI., .METRE. ) );
#216 =( NAMED_UNIT ( * ) PLANE_ANGLE_UNIT ( ) SI_UNIT ( $, .RADIAN. ) );
#217 =( NAMED_UNIT ( * ) SI_UNIT ( $, .STERADIAN. ) SOLID_ANGLE_UNIT ( ) );
#218 = CARTESIAN_POINT ( 'NONE',  ( 0.0000000000000000000, 0.0000000000000000000, 0.0000000000000000000 ) ) ;
#219 = DIRECTION ( 'NONE',  ( 0.0000000000000000000, 0.0000000000000000000, 1.000000000000000000 ) ) ;
#220 = DIRECTION ( 'NONE',  ( 1.000000000000000000, 0.0000000000000000000, 0.0000000000000000000 ) ) ;
#221 = APPLICATION_CONTEXT ( 'configuration controlled 3d designs of mechanical parts and assemblies' ) ;
#222 = APPLICATION_PROTOCOL_DEFINITION ( 'international standard', 'config_control_design', 1994, #221 ) ;
#223 = MECHANICAL_CONTEXT ( 'NONE', #221, 'mechanical' ) ;
#224 = PERSON_AND_ORGANIZATION_ROLE ( 'design_owner' ) ;
#225 = APPLICATION_CONTEXT ( 'configuration controlled 3d designs of mechanical parts and assemblies' ) ;
#226 = APPLICATION_PROTOCOL_DEFINITION ( 'international standard', 'config_control_design', 1994, #225 ) ;
#227 = APPROVAL_STATUS ( 'not_yet_approved' ) ;
#228 = APPROVAL_ROLE ( '' ) ;
#229 = PERSON_AND_ORGANIZATION_ROLE ( 'creator' ) ;
#230 = DATE_TIME_ROLE ( 'creation_date' ) ;
#231 = APPROVAL_STATUS ( 'not_yet_approved' ) ;
#232 = APPROVAL_ROLE ( '' ) ;
#233 = PERSON_AND_ORGANIZATION_ROLE ( 'creator' ) ;
#234 = PERSON_AND_ORGANIZATION_ROLE ( 'design_supplier' ) ;
#235 = SECURITY_CLASSIFICATION_LEVEL ( 'unclassified' ) ;
#236 = PERSON_AND_ORGANIZATION_ROLE ( 'classification_officer' ) ;
#237 = DATE_TIME_ROLE ( 'classification_date' ) ;
#238 = APPROVAL_STATUS ( 'not_yet_approved' ) ;
#239 = APPROVAL_ROLE ( '' ) ;
#240 = CONICAL_SURFACE ( 'NONE', #244, 12.69999999999999900, 0.7853981633974545000 ) ;
#241 = AXIS2_PLACEMENT_3D ( 'NONE', #60, #59, #58 ) ;
#242 = AXIS2_PLACEMENT_3D ( 'NONE', #8, #9, #10 ) ;
#243 = CIRCLE ( 'NONE', #241, 12.55857864376269000 ) ;
#244 = AXIS2_PLACEMENT_3D ( 'NONE', #57, #6, #7 ) ;
#245 = AXIS2_PLACEMENT_3D ( 'NONE', #11, #12, #13 ) ;
#246 = CONICAL_SURFACE ( 'NONE', #242, 12.69999999999999900, 0.7853981633974545000 ) ;
#247 = CONICAL_SURFACE ( 'NONE', #245, 12.55857864376269000, 0.7853981633974606000 ) ;
#248 = CIRCLE ( 'NONE', #251, 12.69999999999999900 ) ;
#249 = AXIS2_PLACEMENT_3D ( 'NONE', #32, #33, #34 ) ;
#250 = CIRCLE ( 'NONE', #273, 12.55857864376269200 ) ;
#251 = AXIS2_PLACEMENT_3D ( 'NONE', #14, #15, #16 ) ;
#252 = CONICAL_SURFACE ( 'NONE', #249, 12.55857864376269000, 0.7853981633974606000 ) ;
#253 = VECTOR ( 'NONE', #18, 1000.000000000000000 ) ;
#254 = CIRCLE ( 'NONE', #256, 12.69999999999999900 ) ;
#255 = VECTOR ( 'NONE', #20, 1000.000000000000000 ) ;
#256 = AXIS2_PLACEMENT_3D ( 'NONE', #21, #22, #23 ) ;
#257 = CIRCLE ( 'NONE', #258, 23.00000000000000000 ) ;
#258 = AXIS2_PLACEMENT_3D ( 'NONE', #24, #25, #26 ) ;
#259 = CIRCLE ( 'NONE', #260, 12.69999999999999900 ) ;
#260 = AXIS2_PLACEMENT_3D ( 'NONE', #27, #28, #29 ) ;
#261 = AXIS2_PLACEMENT_3D ( 'NONE', #54, #43, #44 ) ;
#262 = VECTOR ( 'NONE', #31, 1000.000000000000000 ) ;
#263 = AXIS2_PLACEMENT_3D ( 'NONE', #52, #42, #53 ) ;
#264 = CIRCLE ( 'NONE', #266, 12.69999999999999900 ) ;
#265 = VECTOR ( 'NONE', #36, 1000.000000000000000 ) ;
#266 = AXIS2_PLACEMENT_3D ( 'NONE', #37, #38, #39 ) ;
#267 = TOROIDAL_SURFACE ( 'NONE', #261, 0.006393968114355545700, 23.00000000000000000 ) ;
#268 = VECTOR ( 'NONE', #40, 1000.000000000000000 ) ;
#269 = AXIS2_PLACEMENT_3D ( 'NONE', #45, #46, #47 ) ;
#270 = TOROIDAL_SURFACE ( 'NONE', #269, 0.006393968114355545700, 23.00000000000000000 ) ;
#271 = CIRCLE ( 'NONE', #279, 12.55857864376269000 ) ;
#272 = CIRCLE ( 'NONE', #277, 12.55857864376269200 ) ;
#273 = AXIS2_PLACEMENT_3D ( 'NONE', #48, #49, #50 ) ;
#274 = CIRCLE ( 'NONE', #275, 23.00000000000000000 ) ;
#275 = AXIS2_PLACEMENT_3D ( 'NONE', #5, #55, #4 ) ;
#276 = AXIS2_PLACEMENT_3D ( 'NONE', #63, #64, #65 ) ;
#277 = AXIS2_PLACEMENT_3D ( 'NONE', #56, #61, #62 ) ;
#278 = AXIS2_PLACEMENT_3D ( 'NONE', #203, #204, #205 ) ;
#279 = AXIS2_PLACEMENT_3D ( 'NONE', #198, #199, #200 ) ;
#280 = VECTOR ( 'NONE', #202, 1000.000000000000000 ) ;
#281 = AXIS2_PLACEMENT_3D ( 'NONE', #218, #219, #220 ) ;
#282 = CC_DESIGN_PERSON_AND_ORGANIZATION_ASSIGNMENT ( #169, #224, ( #3 ) ) ;
#283 = PRODUCT_DEFINITION ( 'UNKNOWN', '', #288, #301 ) ;
#284 = APPROVAL ( #227, 'UNSPECIFIED' ) ;
#285 = CC_DESIGN_APPROVAL ( #284, ( #283 ) ) ;
#286 = CC_DESIGN_PERSON_AND_ORGANIZATION_ASSIGNMENT ( #176, #229, ( #283 ) ) ;
#287 = CC_DESIGN_DATE_AND_TIME_ASSIGNMENT ( #179, #230, ( #283 ) ) ;
#288 = PRODUCT_DEFINITION_FORMATION_WITH_SPECIFIED_SOURCE ( 'ANY', '', #3, .NOT_KNOWN. ) ;
#289 = APPROVAL ( #231, 'UNSPECIFIED' ) ;
#290 = CC_DESIGN_APPROVAL ( #289, ( #288 ) ) ;
#291 = CC_DESIGN_PERSON_AND_ORGANIZATION_ASSIGNMENT ( #186, #233, ( #288 ) ) ;
#292 = CC_DESIGN_PERSON_AND_ORGANIZATION_ASSIGNMENT ( #187, #234, ( #288 ) ) ;
#293 = SECURITY_CLASSIFICATION ( '', '', #235 ) ;
#294 = CC_DESIGN_PERSON_AND_ORGANIZATION_ASSIGNMENT ( #188, #236, ( #293 ) ) ;
#295 = CC_DESIGN_DATE_AND_TIME_ASSIGNMENT ( #191, #237, ( #293 ) ) ;
#296 = APPROVAL ( #238, 'UNSPECIFIED' ) ;
#297 = CC_DESIGN_APPROVAL ( #296, ( #293 ) ) ;
#298 = CC_DESIGN_SECURITY_CLASSIFICATION ( #293, ( #288 ) ) ;
#299 = PRODUCT_RELATED_PRODUCT_CATEGORY ( 'detail', '', ( #3 ) ) ;
#300 = PRODUCT_DEFINITION_SHAPE ( 'NONE', 'NONE',  #283 ) ;
#301 = DESIGN_CONTEXT ( 'detailed design', #225, 'design' ) ;
ENDSEC;
END-ISO-10303-21;
