ISO-10303-21;
HEADER;
FILE_DESCRIPTION (( 'STEP AP203' ),
    '1' );
FILE_NAME ('Web Model 20159_22061.step',
    '2022-06-17T13:53:16',
    ( 'WC' ),
    ( 'Windows Central' ),
    'SwSTEP 2.0',
    'SolidWorks 2021',
    '' );
FILE_SCHEMA (( 'CONFIG_CONTROL_DESIGN' ));
ENDSEC;

DATA;
#1 = ORIENTED_EDGE ( 'NONE', *, *, #99, .F. ) ;
#2 = CC_DESIGN_PERSON_AND_ORGANIZATION_ASSIGNMENT ( #30, #102, ( #107 ) ) ;
#3 = COORDINATED_UNIVERSAL_TIME_OFFSET ( 5, 0, .BEHIND. ) ;
#4 = CALENDAR_DATE ( 2022, 17, 6 ) ;
#5 = CARTESIAN_POINT ( 'NONE',  ( 50.00000000000000000, 6.123233995736766085E-15, 2.000000000000000000 ) ) ;
#6 =( LENGTH_UNIT ( ) NAMED_UNIT ( * ) SI_UNIT ( .MILLI., .METRE. ) );
#7 = APPLICATION_PROTOCOL_DEFINITION ( 'international standard', 'config_control_design', 1994, #76 ) ;
#8 = DATE_TIME_ROLE ( 'classification_date' ) ;
#9 = ADVANCED_FACE ( 'NONE', ( #172 ), #144, .T. ) ;
#10 = LOCAL_TIME ( 9, 53, 16.00000000000000000, #119 ) ;
#11 = APPROVAL_ROLE ( '' ) ;
#12 = ORIENTED_EDGE ( 'NONE', *, *, #99, .T. ) ;
#13 = EDGE_CURVE ( 'NONE', #162, #128, #166, .T. ) ;
#14 = ORIENTED_EDGE ( 'NONE', *, *, #63, .F. ) ;
#15 = ORIENTED_EDGE ( 'NONE', *, *, #63, .T. ) ;
#16 = CC_DESIGN_PERSON_AND_ORGANIZATION_ASSIGNMENT ( #54, #81, ( #61 ) ) ;
#17 = PERSON_AND_ORGANIZATION ( #139, #18 ) ;
#18 = ORGANIZATION ( 'UNSPECIFIED', 'UNSPECIFIED', '' ) ;
#19 = DIRECTION ( 'NONE',  ( 1.000000000000000000, 0.000000000000000000, -0.000000000000000000 ) ) ;
#20 = FACE_OUTER_BOUND ( 'NONE', #91, .T. ) ;
#21 = EDGE_CURVE ( 'NONE', #158, #173, #71, .T. ) ;
#22 = CARTESIAN_POINT ( 'NONE',  ( -50.00000000000000000, 0.000000000000000000, 0.000000000000000000 ) ) ;
#23 = PERSON_AND_ORGANIZATION_ROLE ( 'creator' ) ;
#24 = AXIS2_PLACEMENT_3D ( 'NONE', #116, #118, #29 ) ;
#25 = APPROVAL_PERSON_ORGANIZATION ( #165, #156, #79 ) ;
#26 = LOCAL_TIME ( 9, 53, 16.00000000000000000, #125 ) ;
#27 = LOCAL_TIME ( 9, 53, 16.00000000000000000, #3 ) ;
#28 = DIRECTION ( 'NONE',  ( -0.000000000000000000, -0.000000000000000000, -1.000000000000000000 ) ) ;
#29 = DIRECTION ( 'NONE',  ( 1.000000000000000000, 0.000000000000000000, -0.000000000000000000 ) ) ;
#30 = PERSON_AND_ORGANIZATION ( #139, #18 ) ;
#31 = APPROVAL_STATUS ( 'not_yet_approved' ) ;
#32 = CLOSED_SHELL ( 'NONE', ( #150, #67, #9, #163 ) ) ;
#33 = FACE_OUTER_BOUND ( 'NONE', #62, .T. ) ;
#34 = CC_DESIGN_APPROVAL ( #156, ( #127 ) ) ;
#35 = CARTESIAN_POINT ( 'NONE',  ( 50.00000000000000000, 6.123233995736766085E-15, 0.000000000000000000 ) ) ;
#36 = DIRECTION ( 'NONE',  ( -0.000000000000000000, -0.000000000000000000, -1.000000000000000000 ) ) ;
#37 = PRODUCT_RELATED_PRODUCT_CATEGORY ( 'detail', '', ( #107 ) ) ;
#38 = VECTOR ( 'NONE', #36, 1000.000000000000000 ) ;
#39 = ORIENTED_EDGE ( 'NONE', *, *, #161, .T. ) ;
#40 = LINE ( 'NONE', #59, #117 ) ;
#41 = CIRCLE ( 'NONE', #53, 50.00000000000000000 ) ;
#42 = DIRECTION ( 'NONE',  ( -0.000000000000000000, -0.000000000000000000, -1.000000000000000000 ) ) ;
#43 = APPROVAL ( #47, 'UNSPECIFIED' ) ;
#44 = UNCERTAINTY_MEASURE_WITH_UNIT (LENGTH_MEASURE( 1.000000000000000082E-05 ), #6, 'distance_accuracy_value', 'NONE');
#45 = ORIENTED_EDGE ( 'NONE', *, *, #13, .T. ) ;
#46 = CARTESIAN_POINT ( 'NONE',  ( 0.000000000000000000, 0.000000000000000000, 0.000000000000000000 ) ) ;
#47 = APPROVAL_STATUS ( 'not_yet_approved' ) ;
#48 = CARTESIAN_POINT ( 'NONE',  ( 50.00000000000000000, 6.123233995736766085E-15, 2.000000000000000000 ) ) ;
#49 = DIRECTION ( 'NONE',  ( 0.000000000000000000, 0.000000000000000000, 1.000000000000000000 ) ) ;
#50 = DIRECTION ( 'NONE',  ( 0.000000000000000000, 0.000000000000000000, 1.000000000000000000 ) ) ;
#51 = CC_DESIGN_PERSON_AND_ORGANIZATION_ASSIGNMENT ( #169, #140, ( #127 ) ) ;
#52 = CC_DESIGN_APPROVAL ( #104, ( #61 ) ) ;
#53 = AXIS2_PLACEMENT_3D ( 'NONE', #149, #98, #152 ) ;
#54 = PERSON_AND_ORGANIZATION ( #139, #18 ) ;
#55 = APPROVAL_DATE_TIME ( #155, #156 ) ;
#56 = CARTESIAN_POINT ( 'NONE',  ( 0.000000000000000000, 0.000000000000000000, 0.000000000000000000 ) ) ;
#57 = EDGE_LOOP ( 'NONE', ( #82, #69 ) ) ;
#58 = AXIS2_PLACEMENT_3D ( 'NONE', #56, #106, #157 ) ;
#59 = CARTESIAN_POINT ( 'NONE',  ( -50.00000000000000000, 0.000000000000000000, 2.000000000000000000 ) ) ;
#60 = LINE ( 'NONE', #48, #38 ) ;
#61 = SECURITY_CLASSIFICATION ( '', '', #126 ) ;
#62 = EDGE_LOOP ( 'NONE', ( #130, #12, #45, #14 ) ) ;
#63 = EDGE_CURVE ( 'NONE', #158, #128, #40, .T. ) ;
#64 = PERSON_AND_ORGANIZATION ( #139, #18 ) ;
#65 = CC_DESIGN_SECURITY_CLASSIFICATION ( #61, ( #127 ) ) ;
#66 = APPROVAL_PERSON_ORGANIZATION ( #96, #43, #138 ) ;
#67 = ADVANCED_FACE ( 'NONE', ( #93 ), #94, .T. ) ;
#68 = CC_DESIGN_DATE_AND_TIME_ASSIGNMENT ( #87, #8, ( #61 ) ) ;
#69 = ORIENTED_EDGE ( 'NONE', *, *, #154, .T. ) ;
#70 = DIRECTION ( 'NONE',  ( 0.000000000000000000, 0.000000000000000000, 1.000000000000000000 ) ) ;
#71 = CIRCLE ( 'NONE', #88, 50.00000000000000000 ) ;
#72 = ORIENTED_EDGE ( 'NONE', *, *, #21, .F. ) ;
#73 = PERSON_AND_ORGANIZATION_ROLE ( 'creator' ) ;
#74 = DIRECTION ( 'NONE',  ( -1.000000000000000000, 0.000000000000000000, 0.000000000000000000 ) ) ;
#75 =( NAMED_UNIT ( * ) PLANE_ANGLE_UNIT ( ) SI_UNIT ( $, .RADIAN. ) );
#76 = APPLICATION_CONTEXT ( 'configuration controlled 3d designs of mechanical parts and assemblies' ) ;
#77 = SHAPE_DEFINITION_REPRESENTATION ( #171, #123 ) ;
#78 = CALENDAR_DATE ( 2022, 17, 6 ) ;
#79 = APPROVAL_ROLE ( '' ) ;
#80 = CALENDAR_DATE ( 2022, 17, 6 ) ;
#81 = PERSON_AND_ORGANIZATION_ROLE ( 'classification_officer' ) ;
#82 = ORIENTED_EDGE ( 'NONE', *, *, #21, .T. ) ;
#83 = DESIGN_CONTEXT ( 'detailed design', #90, 'design' ) ;
#84 = DATE_AND_TIME ( #110, #27 ) ;
#85 = CARTESIAN_POINT ( 'NONE',  ( 0.000000000000000000, 0.000000000000000000, 2.000000000000000000 ) ) ;
#86 = CIRCLE ( 'NONE', #151, 50.00000000000000000 ) ;
#87 = DATE_AND_TIME ( #78, #103 ) ;
#88 = AXIS2_PLACEMENT_3D ( 'NONE', #129, #70, #174 ) ;
#89 = COORDINATED_UNIVERSAL_TIME_OFFSET ( 5, 0, .BEHIND. ) ;
#90 = APPLICATION_CONTEXT ( 'configuration controlled 3d designs of mechanical parts and assemblies' ) ;
#91 = EDGE_LOOP ( 'NONE', ( #95, #160 ) ) ;
#92 =( GEOMETRIC_REPRESENTATION_CONTEXT ( 3 ) GLOBAL_UNCERTAINTY_ASSIGNED_CONTEXT ( ( #44 ) ) GLOBAL_UNIT_ASSIGNED_CONTEXT ( ( #6, #75, #112 ) ) REPRESENTATION_CONTEXT ( 'NONE', 'WORKASPACE' ) );
#93 = FACE_OUTER_BOUND ( 'NONE', #108, .T. ) ;
#94 = CYLINDRICAL_SURFACE ( 'NONE', #159, 50.00000000000000000 ) ;
#95 = ORIENTED_EDGE ( 'NONE', *, *, #161, .F. ) ;
#96 = PERSON_AND_ORGANIZATION ( #139, #18 ) ;
#97 = DATE_TIME_ROLE ( 'creation_date' ) ;
#98 = DIRECTION ( 'NONE',  ( 0.000000000000000000, 0.000000000000000000, 1.000000000000000000 ) ) ;
#99 = EDGE_CURVE ( 'NONE', #173, #162, #60, .T. ) ;
#100 = CARTESIAN_POINT ( 'NONE',  ( -50.00000000000000000, 0.000000000000000000, 2.000000000000000000 ) ) ;
#101 = AXIS2_PLACEMENT_3D ( 'NONE', #46, #49, #147 ) ;
#102 = PERSON_AND_ORGANIZATION_ROLE ( 'design_owner' ) ;
#103 = LOCAL_TIME ( 9, 53, 16.00000000000000000, #141 ) ;
#104 = APPROVAL ( #105, 'UNSPECIFIED' ) ;
#105 = APPROVAL_STATUS ( 'not_yet_approved' ) ;
#106 = DIRECTION ( 'NONE',  ( 0.000000000000000000, 0.000000000000000000, 1.000000000000000000 ) ) ;
#107 = PRODUCT ( 'Web Model 20159_22061', 'Web Model 20159_22061', '', ( #113 ) ) ;
#108 = EDGE_LOOP ( 'NONE', ( #1, #72, #15, #39 ) ) ;
#109 = LOCAL_TIME ( 9, 53, 16.00000000000000000, #89 ) ;
#110 = CALENDAR_DATE ( 2022, 17, 6 ) ;
#111 = DATE_AND_TIME ( #4, #10 ) ;
#112 =( NAMED_UNIT ( * ) SI_UNIT ( $, .STERADIAN. ) SOLID_ANGLE_UNIT ( ) );
#113 = MECHANICAL_CONTEXT ( 'NONE', #76, 'mechanical' ) ;
#114 = AXIS2_PLACEMENT_3D ( 'NONE', #85, #148, #74 ) ;
#115 = PERSON_AND_ORGANIZATION ( #139, #18 ) ;
#116 = CARTESIAN_POINT ( 'NONE',  ( 0.000000000000000000, 0.000000000000000000, 2.000000000000000000 ) ) ;
#117 = VECTOR ( 'NONE', #42, 1000.000000000000000 ) ;
#118 = DIRECTION ( 'NONE',  ( 0.000000000000000000, 0.000000000000000000, 1.000000000000000000 ) ) ;
#119 = COORDINATED_UNIVERSAL_TIME_OFFSET ( 5, 0, .BEHIND. ) ;
#120 = CC_DESIGN_APPROVAL ( #43, ( #142 ) ) ;
#121 = CARTESIAN_POINT ( 'NONE',  ( 0.000000000000000000, 0.000000000000000000, 0.000000000000000000 ) ) ;
#122 = DIRECTION ( 'NONE',  ( 1.000000000000000000, 0.000000000000000000, 0.000000000000000000 ) ) ;
#123 = ADVANCED_BREP_SHAPE_REPRESENTATION ( 'Web Model 20159_22061', ( #168, #101 ), #92 ) ;
#124 = CALENDAR_DATE ( 2022, 17, 6 ) ;
#125 = COORDINATED_UNIVERSAL_TIME_OFFSET ( 5, 0, .BEHIND. ) ;
#126 = SECURITY_CLASSIFICATION_LEVEL ( 'unclassified' ) ;
#127 = PRODUCT_DEFINITION_FORMATION_WITH_SPECIFIED_SOURCE ( 'ANY', '', #107, .NOT_KNOWN. ) ;
#128 = VERTEX_POINT ( 'NONE', #22 ) ;
#129 = CARTESIAN_POINT ( 'NONE',  ( 0.000000000000000000, 0.000000000000000000, 2.000000000000000000 ) ) ;
#130 = ORIENTED_EDGE ( 'NONE', *, *, #154, .F. ) ;
#131 = APPROVAL_DATE_TIME ( #84, #43 ) ;
#132 = APPROVAL_PERSON_ORGANIZATION ( #64, #104, #11 ) ;
#133 = CARTESIAN_POINT ( 'NONE',  ( 0.000000000000000000, 0.000000000000000000, 0.000000000000000000 ) ) ;
#134 = AXIS2_PLACEMENT_3D ( 'NONE', #133, #50, #19 ) ;
#135 = PLANE ( 'NONE',  #134 ) ;
#136 = DIRECTION ( 'NONE',  ( 0.000000000000000000, 0.000000000000000000, 1.000000000000000000 ) ) ;
#137 = CC_DESIGN_DATE_AND_TIME_ASSIGNMENT ( #111, #97, ( #142 ) ) ;
#138 = APPROVAL_ROLE ( '' ) ;
#139 = PERSON ( 'UNSPECIFIED', 'UNSPECIFIED', 'UNSPECIFIED', ('UNSPECIFIED'), ('UNSPECIFIED'), ('UNSPECIFIED') ) ;
#140 = PERSON_AND_ORGANIZATION_ROLE ( 'design_supplier' ) ;
#141 = COORDINATED_UNIVERSAL_TIME_OFFSET ( 5, 0, .BEHIND. ) ;
#142 = PRODUCT_DEFINITION ( 'UNKNOWN', '', #127, #83 ) ;
#143 = APPROVAL_DATE_TIME ( #170, #104 ) ;
#144 = PLANE ( 'NONE',  #24 ) ;
#145 = CARTESIAN_POINT ( 'NONE',  ( 0.000000000000000000, 0.000000000000000000, 2.000000000000000000 ) ) ;
#146 = CC_DESIGN_PERSON_AND_ORGANIZATION_ASSIGNMENT ( #115, #23, ( #127 ) ) ;
#147 = DIRECTION ( 'NONE',  ( 1.000000000000000000, 0.000000000000000000, 0.000000000000000000 ) ) ;
#148 = DIRECTION ( 'NONE',  ( -0.000000000000000000, -0.000000000000000000, -1.000000000000000000 ) ) ;
#149 = CARTESIAN_POINT ( 'NONE',  ( 0.000000000000000000, 0.000000000000000000, 2.000000000000000000 ) ) ;
#150 = ADVANCED_FACE ( 'NONE', ( #33 ), #164, .T. ) ;
#151 = AXIS2_PLACEMENT_3D ( 'NONE', #121, #136, #122 ) ;
#152 = DIRECTION ( 'NONE',  ( 1.000000000000000000, 0.000000000000000000, 0.000000000000000000 ) ) ;
#153 = APPLICATION_PROTOCOL_DEFINITION ( 'international standard', 'config_control_design', 1994, #90 ) ;
#154 = EDGE_CURVE ( 'NONE', #173, #158, #41, .T. ) ;
#155 = DATE_AND_TIME ( #80, #109 ) ;
#156 = APPROVAL ( #31, 'UNSPECIFIED' ) ;
#157 = DIRECTION ( 'NONE',  ( 1.000000000000000000, 0.000000000000000000, 0.000000000000000000 ) ) ;
#158 = VERTEX_POINT ( 'NONE', #100 ) ;
#159 = AXIS2_PLACEMENT_3D ( 'NONE', #145, #28, #175 ) ;
#160 = ORIENTED_EDGE ( 'NONE', *, *, #13, .F. ) ;
#161 = EDGE_CURVE ( 'NONE', #128, #162, #86, .T. ) ;
#162 = VERTEX_POINT ( 'NONE', #35 ) ;
#163 = ADVANCED_FACE ( 'NONE', ( #20 ), #135, .F. ) ;
#164 = CYLINDRICAL_SURFACE ( 'NONE', #114, 50.00000000000000000 ) ;
#165 = PERSON_AND_ORGANIZATION ( #139, #18 ) ;
#166 = CIRCLE ( 'NONE', #58, 50.00000000000000000 ) ;
#167 = CC_DESIGN_PERSON_AND_ORGANIZATION_ASSIGNMENT ( #17, #73, ( #142 ) ) ;
#168 = MANIFOLD_SOLID_BREP ( 'Boss-Extrude1', #32 ) ;
#169 = PERSON_AND_ORGANIZATION ( #139, #18 ) ;
#170 = DATE_AND_TIME ( #124, #26 ) ;
#171 = PRODUCT_DEFINITION_SHAPE ( 'NONE', 'NONE',  #142 ) ;
#172 = FACE_OUTER_BOUND ( 'NONE', #57, .T. ) ;
#173 = VERTEX_POINT ( 'NONE', #5 ) ;
#174 = DIRECTION ( 'NONE',  ( 1.000000000000000000, 0.000000000000000000, 0.000000000000000000 ) ) ;
#175 = DIRECTION ( 'NONE',  ( -1.000000000000000000, 0.000000000000000000, 0.000000000000000000 ) ) ;
ENDSEC;
END-ISO-10303-21;
