ISO-10303-21;
HEADER;
FILE_DESCRIPTION (( 'STEP AP203' ),
    '1' );
FILE_NAME ('Web Model 48513_48518.step',
    '2021-04-23T17:59:54',
    ( '' ),
    ( '' ),
    'SwSTEP 2.0',
    'SolidWorks 2018',
    '' );
FILE_SCHEMA (( 'CONFIG_CONTROL_DESIGN' ));
ENDSEC;

DATA;
#1 = CIRCLE ( 'NONE', #35, 22.85000000000000142 ) ;
#2 = ORIENTED_EDGE ( 'NONE', *, *, #22, .T. ) ;
#3 = EDGE_CURVE ( 'NONE', #125, #282, #162, .T. ) ;
#4 = CC_DESIGN_PERSON_AND_ORGANIZATION_ASSIGNMENT ( #161, #272, ( #135 ) ) ;
#5 = DATE_AND_TIME ( #309, #299 ) ;
#6 = FACE_BOUND ( 'NONE', #67, .T. ) ;
#7 = ORIENTED_EDGE ( 'NONE', *, *, #158, .F. ) ;
#8 = DIRECTION ( 'NONE',  ( 0.000000000000000000, 0.000000000000000000, 1.000000000000000000 ) ) ;
#9 = SECURITY_CLASSIFICATION ( '', '', #30 ) ;
#10 = MANIFOLD_SOLID_BREP ( 'Boss-Extrude2', #76 ) ;
#11 = COORDINATED_UNIVERSAL_TIME_OFFSET ( 5, 0, .BEHIND. ) ;
#12 = AXIS2_PLACEMENT_3D ( 'NONE', #75, #169, #50 ) ;
#13 = EDGE_LOOP ( 'NONE', ( #117, #84, #232, #256 ) ) ;
#14 = ADVANCED_FACE ( 'NONE', ( #230 ), #310, .F. ) ;
#15 = CARTESIAN_POINT ( 'NONE',  ( 22.85000000000000142, 0.000000000000000000, 0.000000000000000000 ) ) ;
#16 = CARTESIAN_POINT ( 'NONE',  ( 0.000000000000000000, 0.000000000000000000, -0.2000000000000000111 ) ) ;
#17 = DIRECTION ( 'NONE',  ( 1.000000000000000000, 0.000000000000000000, 0.000000000000000000 ) ) ;
#18 = PERSON_AND_ORGANIZATION ( #316, #185 ) ;
#19 = ORIENTED_EDGE ( 'NONE', *, *, #104, .F. ) ;
#20 = DIRECTION ( 'NONE',  ( 1.000000000000000000, 0.000000000000000000, 0.000000000000000000 ) ) ;
#21 = DIRECTION ( 'NONE',  ( 1.000000000000000000, 0.000000000000000000, 0.000000000000000000 ) ) ;
#22 = EDGE_CURVE ( 'NONE', #114, #61, #32, .T. ) ;
#23 = DIRECTION ( 'NONE',  ( 0.000000000000000000, 0.000000000000000000, 1.000000000000000000 ) ) ;
#24 = DIRECTION ( 'NONE',  ( 0.000000000000000000, 0.000000000000000000, 1.000000000000000000 ) ) ;
#25 = VECTOR ( 'NONE', #294, 1000.000000000000000 ) ;
#26 = APPROVAL ( #82, 'UNSPECIFIED' ) ;
#27 = APPLICATION_PROTOCOL_DEFINITION ( 'international standard', 'config_control_design', 1994, #179 ) ;
#28 = APPLICATION_PROTOCOL_DEFINITION ( 'international standard', 'config_control_design', 1994, #81 ) ;
#29 = AXIS2_PLACEMENT_3D ( 'NONE', #278, #129, #78 ) ;
#30 = SECURITY_CLASSIFICATION_LEVEL ( 'unclassified' ) ;
#31 = LOCAL_TIME ( 13, 59, 54.00000000000000000, #99 ) ;
#32 = CIRCLE ( 'NONE', #69, 22.85000000000000142 ) ;
#33 = EDGE_LOOP ( 'NONE', ( #265, #324, #57, #130 ) ) ;
#34 = CIRCLE ( 'NONE', #311, 25.00000000000000000 ) ;
#35 = AXIS2_PLACEMENT_3D ( 'NONE', #314, #8, #269 ) ;
#36 = DATE_AND_TIME ( #170, #49 ) ;
#37 = ORIENTED_EDGE ( 'NONE', *, *, #131, .F. ) ;
#38 = CC_DESIGN_APPROVAL ( #26, ( #58 ) ) ;
#39 = EDGE_CURVE ( 'NONE', #271, #88, #286, .T. ) ;
#40 = PERSON_AND_ORGANIZATION ( #316, #185 ) ;
#41 = ADVANCED_FACE ( 'NONE', ( #238 ), #86, .F. ) ;
#42 = EDGE_LOOP ( 'NONE', ( #260, #222 ) ) ;
#43 = VERTEX_POINT ( 'NONE', #193 ) ;
#44 = CC_DESIGN_SECURITY_CLASSIFICATION ( #9, ( #58 ) ) ;
#45 = CARTESIAN_POINT ( 'NONE',  ( 0.000000000000000000, 0.000000000000000000, 4.500000000000000000 ) ) ;
#46 = CARTESIAN_POINT ( 'NONE',  ( 0.000000000000000000, 0.000000000000000000, -0.2000000000000000111 ) ) ;
#47 = ADVANCED_FACE ( 'NONE', ( #283, #285 ), #115, .T. ) ;
#48 = AXIS2_PLACEMENT_3D ( 'NONE', #275, #24, #249 ) ;
#49 = LOCAL_TIME ( 13, 59, 54.00000000000000000, #180 ) ;
#50 = DIRECTION ( 'NONE',  ( 1.000000000000000000, 0.000000000000000000, 0.000000000000000000 ) ) ;
#51 = ORIENTED_EDGE ( 'NONE', *, *, #22, .F. ) ;
#52 = DIRECTION ( 'NONE',  ( 0.000000000000000000, 0.000000000000000000, 1.000000000000000000 ) ) ;
#53 = DIRECTION ( 'NONE',  ( -0.000000000000000000, -0.000000000000000000, -1.000000000000000000 ) ) ;
#54 = CALENDAR_DATE ( 2021, 23, 4 ) ;
#55 = ORIENTED_EDGE ( 'NONE', *, *, #3, .T. ) ;
#56 = ORIENTED_EDGE ( 'NONE', *, *, #233, .F. ) ;
#57 = ORIENTED_EDGE ( 'NONE', *, *, #280, .T. ) ;
#58 = PRODUCT_DEFINITION_FORMATION_WITH_SPECIFIED_SOURCE ( 'ANY', '', #217, .NOT_KNOWN. ) ;
#59 = PERSON_AND_ORGANIZATION_ROLE ( 'classification_officer' ) ;
#60 = DATE_AND_TIME ( #54, #255 ) ;
#61 = VERTEX_POINT ( 'NONE', #15 ) ;
#62 = AXIS2_PLACEMENT_3D ( 'NONE', #317, #190, #140 ) ;
#63 = PRODUCT_DEFINITION_SHAPE ( 'NONE', 'NONE',  #135 ) ;
#64 = VECTOR ( 'NONE', #52, 1000.000000000000000 ) ;
#65 = ORIENTED_EDGE ( 'NONE', *, *, #166, .T. ) ;
#66 = FACE_OUTER_BOUND ( 'NONE', #171, .T. ) ;
#67 = EDGE_LOOP ( 'NONE', ( #242, #65 ) ) ;
#68 = DIRECTION ( 'NONE',  ( 0.000000000000000000, 0.000000000000000000, 1.000000000000000000 ) ) ;
#69 = AXIS2_PLACEMENT_3D ( 'NONE', #92, #215, #236 ) ;
#70 = CIRCLE ( 'NONE', #329, 22.85000000000000142 ) ;
#71 = ORIENTED_EDGE ( 'NONE', *, *, #158, .T. ) ;
#72 = DIRECTION ( 'NONE',  ( 0.000000000000000000, 0.000000000000000000, 1.000000000000000000 ) ) ;
#73 = CARTESIAN_POINT ( 'NONE',  ( -22.85000000000000142, 2.798317936051702316E-15, -0.2000000000000000111 ) ) ;
#74 = CARTESIAN_POINT ( 'NONE',  ( 22.85000000000000142, 0.000000000000000000, -0.2000000000000000111 ) ) ;
#75 = CARTESIAN_POINT ( 'NONE',  ( 0.000000000000000000, 0.000000000000000000, 4.500000000000000000 ) ) ;
#76 = CLOSED_SHELL ( 'NONE', ( #168, #214, #14, #41, #263, #318, #113, #47, #321, #292 ) ) ;
#77 = CARTESIAN_POINT ( 'NONE',  ( 0.000000000000000000, 0.000000000000000000, 0.000000000000000000 ) ) ;
#78 = DIRECTION ( 'NONE',  ( 1.000000000000000000, 0.000000000000000000, 0.000000000000000000 ) ) ;
#79 = APPROVAL_PERSON_ORGANIZATION ( #18, #26, #106 ) ;
#80 = APPROVAL ( #205, 'UNSPECIFIED' ) ;
#81 = APPLICATION_CONTEXT ( 'configuration controlled 3d designs of mechanical parts and assemblies' ) ;
#82 = APPROVAL_STATUS ( 'not_yet_approved' ) ;
#83 = EDGE_CURVE ( 'NONE', #156, #189, #34, .T. ) ;
#84 = ORIENTED_EDGE ( 'NONE', *, *, #258, .T. ) ;
#85 = CC_DESIGN_DATE_AND_TIME_ASSIGNMENT ( #60, #228, ( #9 ) ) ;
#86 = CYLINDRICAL_SURFACE ( 'NONE', #289, 22.85000000000000142 ) ;
#87 = DATE_AND_TIME ( #155, #31 ) ;
#88 = VERTEX_POINT ( 'NONE', #262 ) ;
#89 = DIRECTION ( 'NONE',  ( 1.000000000000000000, 0.000000000000000000, 0.000000000000000000 ) ) ;
#90 = DIRECTION ( 'NONE',  ( 1.000000000000000000, 0.000000000000000000, 0.000000000000000000 ) ) ;
#91 = AXIS2_PLACEMENT_3D ( 'NONE', #191, #94, #89 ) ;
#92 = CARTESIAN_POINT ( 'NONE',  ( 0.000000000000000000, 0.000000000000000000, 0.000000000000000000 ) ) ;
#93 = CYLINDRICAL_SURFACE ( 'NONE', #204, 22.85000000000000142 ) ;
#94 = DIRECTION ( 'NONE',  ( 0.000000000000000000, 0.000000000000000000, 1.000000000000000000 ) ) ;
#95 = CC_DESIGN_PERSON_AND_ORGANIZATION_ASSIGNMENT ( #173, #59, ( #9 ) ) ;
#96 = DIRECTION ( 'NONE',  ( 1.000000000000000000, 0.000000000000000000, 0.000000000000000000 ) ) ;
#97 = DIRECTION ( 'NONE',  ( 1.000000000000000000, 0.000000000000000000, 0.000000000000000000 ) ) ;
#98 = DIRECTION ( 'NONE',  ( 0.000000000000000000, 0.000000000000000000, 1.000000000000000000 ) ) ;
#99 = COORDINATED_UNIVERSAL_TIME_OFFSET ( 5, 0, .BEHIND. ) ;
#100 = CARTESIAN_POINT ( 'NONE',  ( 22.85000000000000142, 0.000000000000000000, 4.500000000000000000 ) ) ;
#101 = DIRECTION ( 'NONE',  ( 0.000000000000000000, 0.000000000000000000, 1.000000000000000000 ) ) ;
#102 = ORIENTED_EDGE ( 'NONE', *, *, #233, .T. ) ;
#103 = PERSON_AND_ORGANIZATION_ROLE ( 'design_owner' ) ;
#104 = EDGE_CURVE ( 'NONE', #88, #271, #1, .T. ) ;
#105 = CARTESIAN_POINT ( 'NONE',  ( -22.85000000000000142, 2.798317936051702316E-15, 4.500000000000000000 ) ) ;
#106 = APPROVAL_ROLE ( '' ) ;
#107 = LINE ( 'NONE', #243, #159 ) ;
#108 = CARTESIAN_POINT ( 'NONE',  ( 0.000000000000000000, 0.000000000000000000, 0.000000000000000000 ) ) ;
#109 = ORIENTED_EDGE ( 'NONE', *, *, #39, .T. ) ;
#110 = AXIS2_PLACEMENT_3D ( 'NONE', #77, #333, #178 ) ;
#111 = PERSON_AND_ORGANIZATION ( #316, #185 ) ;
#112 = AXIS2_PLACEMENT_3D ( 'NONE', #240, #322, #96 ) ;
#113 = ADVANCED_FACE ( 'NONE', ( #305 ), #288, .F. ) ;
#114 = VERTEX_POINT ( 'NONE', #268 ) ;
#115 = PLANE ( 'NONE',  #304 ) ;
#116 = COORDINATED_UNIVERSAL_TIME_OFFSET ( 5, 0, .BEHIND. ) ;
#117 = ORIENTED_EDGE ( 'NONE', *, *, #136, .T. ) ;
#118 = AXIS2_PLACEMENT_3D ( 'NONE', #16, #174, #97 ) ;
#119 = CARTESIAN_POINT ( 'NONE',  ( 0.000000000000000000, 0.000000000000000000, 4.500000000000000000 ) ) ;
#120 = VECTOR ( 'NONE', #98, 1000.000000000000000 ) ;
#121 = DIRECTION ( 'NONE',  ( 0.000000000000000000, 0.000000000000000000, 1.000000000000000000 ) ) ;
#122 = DIRECTION ( 'NONE',  ( 0.000000000000000000, 0.000000000000000000, 1.000000000000000000 ) ) ;
#123 = DIRECTION ( 'NONE',  ( 1.000000000000000000, 0.000000000000000000, 0.000000000000000000 ) ) ;
#124 = LOCAL_TIME ( 13, 59, 54.00000000000000000, #237 ) ;
#125 = VERTEX_POINT ( 'NONE', #100 ) ;
#126 = CARTESIAN_POINT ( 'NONE',  ( -22.85000000000000142, 2.798317936051702316E-15, 3.000000000000000000 ) ) ;
#127 = AXIS2_PLACEMENT_3D ( 'NONE', #46, #72, #196 ) ;
#128 = CARTESIAN_POINT ( 'NONE',  ( 0.000000000000000000, 0.000000000000000000, -0.2000000000000000111 ) ) ;
#129 = DIRECTION ( 'NONE',  ( 0.000000000000000000, 0.000000000000000000, 1.000000000000000000 ) ) ;
#130 = ORIENTED_EDGE ( 'NONE', *, *, #273, .F. ) ;
#131 = EDGE_CURVE ( 'NONE', #306, #247, #210, .T. ) ;
#132 = APPROVAL_STATUS ( 'not_yet_approved' ) ;
#133 = LINE ( 'NONE', #144, #192 ) ;
#134 = ORIENTED_EDGE ( 'NONE', *, *, #239, .T. ) ;
#135 = PRODUCT_DEFINITION ( 'UNKNOWN', '', #58, #141 ) ;
#136 = EDGE_CURVE ( 'NONE', #163, #43, #264, .T. ) ;
#137 = LINE ( 'NONE', #147, #64 ) ;
#138 = CIRCLE ( 'NONE', #12, 22.85000000000000142 ) ;
#139 = ORIENTED_EDGE ( 'NONE', *, *, #246, .F. ) ;
#140 = DIRECTION ( 'NONE',  ( 1.000000000000000000, 0.000000000000000000, 0.000000000000000000 ) ) ;
#141 = DESIGN_CONTEXT ( 'detailed design', #81, 'design' ) ;
#142 = DIRECTION ( 'NONE',  ( 0.000000000000000000, 0.000000000000000000, 1.000000000000000000 ) ) ;
#143 = FACE_OUTER_BOUND ( 'NONE', #42, .T. ) ;
#144 = CARTESIAN_POINT ( 'NONE',  ( -22.85000000000000142, 2.798317936051702316E-15, -0.2000000000000000111 ) ) ;
#145 = CARTESIAN_POINT ( 'NONE',  ( 0.000000000000000000, 0.000000000000000000, -0.2000000000000000111 ) ) ;
#146 = CIRCLE ( 'NONE', #29, 25.00000000000000000 ) ;
#147 = CARTESIAN_POINT ( 'NONE',  ( -22.85000000000000142, 2.798317936051702316E-15, -0.2000000000000000111 ) ) ;
#148 = CARTESIAN_POINT ( 'NONE',  ( 0.000000000000000000, 0.000000000000000000, -0.2000000000000000111 ) ) ;
#149 = APPROVAL ( #132, 'UNSPECIFIED' ) ;
#150 = FACE_OUTER_BOUND ( 'NONE', #315, .T. ) ;
#151 = EDGE_CURVE ( 'NONE', #61, #114, #241, .T. ) ;
#152 = MECHANICAL_CONTEXT ( 'NONE', #179, 'mechanical' ) ;
#153 = UNCERTAINTY_MEASURE_WITH_UNIT (LENGTH_MEASURE( 1.000000000000000082E-05 ), #331, 'distance_accuracy_value', 'NONE');
#154 = PLANE ( 'NONE',  #160 ) ;
#155 = CALENDAR_DATE ( 2021, 23, 4 ) ;
#156 = VERTEX_POINT ( 'NONE', #326 ) ;
#157 = EDGE_LOOP ( 'NONE', ( #253, #102, #235, #213 ) ) ;
#158 = EDGE_CURVE ( 'NONE', #306, #61, #107, .T. ) ;
#159 = VECTOR ( 'NONE', #23, 1000.000000000000000 ) ;
#160 = AXIS2_PLACEMENT_3D ( 'NONE', #128, #303, #279 ) ;
#161 = PERSON_AND_ORGANIZATION ( #316, #185 ) ;
#162 = CIRCLE ( 'NONE', #183, 22.85000000000000142 ) ;
#163 = VERTEX_POINT ( 'NONE', #267 ) ;
#164 = DIRECTION ( 'NONE',  ( 1.000000000000000000, 0.000000000000000000, 0.000000000000000000 ) ) ;
#165 = DIRECTION ( 'NONE',  ( 1.000000000000000000, 0.000000000000000000, -0.000000000000000000 ) ) ;
#166 = EDGE_CURVE ( 'NONE', #247, #306, #70, .T. ) ;
#167 = DIRECTION ( 'NONE',  ( 0.000000000000000000, 0.000000000000000000, 1.000000000000000000 ) ) ;
#168 = ADVANCED_FACE ( 'NONE', ( #212 ), #93, .F. ) ;
#169 = DIRECTION ( 'NONE',  ( 0.000000000000000000, 0.000000000000000000, 1.000000000000000000 ) ) ;
#170 = CALENDAR_DATE ( 2021, 23, 4 ) ;
#171 = EDGE_LOOP ( 'NONE', ( #300, #109 ) ) ;
#172 = DIRECTION ( 'NONE',  ( 0.000000000000000000, 0.000000000000000000, 1.000000000000000000 ) ) ;
#173 = PERSON_AND_ORGANIZATION ( #316, #185 ) ;
#174 = DIRECTION ( 'NONE',  ( 0.000000000000000000, 0.000000000000000000, 1.000000000000000000 ) ) ;
#175 = EDGE_LOOP ( 'NONE', ( #208, #139 ) ) ;
#176 = EDGE_CURVE ( 'NONE', #88, #125, #281, .T. ) ;
#177 =( NAMED_UNIT ( * ) PLANE_ANGLE_UNIT ( ) SI_UNIT ( $, .RADIAN. ) );
#178 = DIRECTION ( 'NONE',  ( 1.000000000000000000, 0.000000000000000000, 0.000000000000000000 ) ) ;
#179 = APPLICATION_CONTEXT ( 'configuration controlled 3d designs of mechanical parts and assemblies' ) ;
#180 = COORDINATED_UNIVERSAL_TIME_OFFSET ( 5, 0, .BEHIND. ) ;
#181 = PERSON_AND_ORGANIZATION_ROLE ( 'creator' ) ;
#182 = EDGE_LOOP ( 'NONE', ( #56, #19, #203, #55 ) ) ;
#183 = AXIS2_PLACEMENT_3D ( 'NONE', #45, #68, #90 ) ;
#184 = APPROVAL_DATE_TIME ( #327, #26 ) ;
#185 = ORGANIZATION ( 'UNSPECIFIED', 'UNSPECIFIED', '' ) ;
#186 = ORIENTED_EDGE ( 'NONE', *, *, #83, .T. ) ;
#187 = CARTESIAN_POINT ( 'NONE',  ( 0.000000000000000000, 0.000000000000000000, -0.2000000000000000111 ) ) ;
#188 = APPROVAL_DATE_TIME ( #5, #149 ) ;
#189 = VERTEX_POINT ( 'NONE', #244 ) ;
#190 = DIRECTION ( 'NONE',  ( 0.000000000000000000, 0.000000000000000000, 1.000000000000000000 ) ) ;
#191 = CARTESIAN_POINT ( 'NONE',  ( 0.000000000000000000, 0.000000000000000000, 3.000000000000000000 ) ) ;
#192 = VECTOR ( 'NONE', #122, 1000.000000000000000 ) ;
#193 = CARTESIAN_POINT ( 'NONE',  ( -25.00000000000000000, 3.061616997868383043E-15, -0.2000000000000000111 ) ) ;
#194 = ORIENTED_EDGE ( 'NONE', *, *, #166, .F. ) ;
#195 =( GEOMETRIC_REPRESENTATION_CONTEXT ( 3 ) GLOBAL_UNCERTAINTY_ASSIGNED_CONTEXT ( ( #153 ) ) GLOBAL_UNIT_ASSIGNED_CONTEXT ( ( #331, #177, #334 ) ) REPRESENTATION_CONTEXT ( 'NONE', 'WORKASPACE' ) );
#196 = DIRECTION ( 'NONE',  ( 1.000000000000000000, 0.000000000000000000, 0.000000000000000000 ) ) ;
#197 = DIRECTION ( 'NONE',  ( 1.000000000000000000, 0.000000000000000000, 0.000000000000000000 ) ) ;
#198 = CIRCLE ( 'NONE', #251, 25.00000000000000000 ) ;
#199 = CARTESIAN_POINT ( 'NONE',  ( -25.00000000000000000, 3.061616997868383043E-15, -0.2000000000000000111 ) ) ;
#200 = DIRECTION ( 'NONE',  ( 1.000000000000000000, 0.000000000000000000, -0.000000000000000000 ) ) ;
#201 = DIRECTION ( 'NONE',  ( 0.000000000000000000, 0.000000000000000000, 1.000000000000000000 ) ) ;
#202 = FACE_OUTER_BOUND ( 'NONE', #13, .T. ) ;
#203 = ORIENTED_EDGE ( 'NONE', *, *, #176, .T. ) ;
#204 = AXIS2_PLACEMENT_3D ( 'NONE', #145, #221, #197 ) ;
#205 = APPROVAL_STATUS ( 'not_yet_approved' ) ;
#206 = APPROVAL_ROLE ( '' ) ;
#207 = CYLINDRICAL_SURFACE ( 'NONE', #266, 25.00000000000000000 ) ;
#208 = ORIENTED_EDGE ( 'NONE', *, *, #3, .F. ) ;
#209 = PERSON_AND_ORGANIZATION ( #316, #185 ) ;
#210 = CIRCLE ( 'NONE', #127, 22.85000000000000142 ) ;
#211 = AXIS2_PLACEMENT_3D ( 'NONE', #219, #53, #17 ) ;
#212 = FACE_OUTER_BOUND ( 'NONE', #157, .T. ) ;
#213 = ORIENTED_EDGE ( 'NONE', *, *, #176, .F. ) ;
#214 = ADVANCED_FACE ( 'NONE', ( #202 ), #207, .T. ) ;
#215 = DIRECTION ( 'NONE',  ( -0.000000000000000000, -0.000000000000000000, -1.000000000000000000 ) ) ;
#216 = APPROVAL_PERSON_ORGANIZATION ( #111, #149, #302 ) ;
#217 = PRODUCT ( 'Web Model 48513_48518', 'Web Model 48513_48518', '', ( #152 ) ) ;
#218 = FACE_OUTER_BOUND ( 'NONE', #33, .T. ) ;
#219 = CARTESIAN_POINT ( 'NONE',  ( 0.000000000000000000, 0.000000000000000000, 0.000000000000000000 ) ) ;
#220 = LINE ( 'NONE', #224, #323 ) ;
#221 = DIRECTION ( 'NONE',  ( 0.000000000000000000, 0.000000000000000000, 1.000000000000000000 ) ) ;
#222 = ORIENTED_EDGE ( 'NONE', *, *, #297, .F. ) ;
#223 = ORIENTED_EDGE ( 'NONE', *, *, #239, .F. ) ;
#224 = CARTESIAN_POINT ( 'NONE',  ( 25.00000000000000000, 0.000000000000000000, -0.2000000000000000111 ) ) ;
#225 = DATE_TIME_ROLE ( 'creation_date' ) ;
#226 = ADVANCED_BREP_SHAPE_REPRESENTATION ( 'Web Model 48513_48518', ( #10, #110 ), #195 ) ;
#227 = PLANE ( 'NONE',  #48 ) ;
#228 = DATE_TIME_ROLE ( 'classification_date' ) ;
#229 = PERSON_AND_ORGANIZATION ( #316, #185 ) ;
#230 = FACE_OUTER_BOUND ( 'NONE', #296, .T. ) ;
#231 = AXIS2_PLACEMENT_3D ( 'NONE', #108, #201, #200 ) ;
#232 = ORIENTED_EDGE ( 'NONE', *, *, #83, .F. ) ;
#233 = EDGE_CURVE ( 'NONE', #271, #282, #133, .T. ) ;
#234 = SHAPE_DEFINITION_REPRESENTATION ( #63, #226 ) ;
#235 = ORIENTED_EDGE ( 'NONE', *, *, #246, .T. ) ;
#236 = DIRECTION ( 'NONE',  ( 1.000000000000000000, 0.000000000000000000, 0.000000000000000000 ) ) ;
#237 = COORDINATED_UNIVERSAL_TIME_OFFSET ( 5, 0, .BEHIND. ) ;
#238 = FACE_OUTER_BOUND ( 'NONE', #328, .T. ) ;
#239 = EDGE_CURVE ( 'NONE', #247, #114, #137, .T. ) ;
#240 = CARTESIAN_POINT ( 'NONE',  ( 0.000000000000000000, 0.000000000000000000, -0.2000000000000000111 ) ) ;
#241 = CIRCLE ( 'NONE', #211, 22.85000000000000142 ) ;
#242 = ORIENTED_EDGE ( 'NONE', *, *, #131, .T. ) ;
#243 = CARTESIAN_POINT ( 'NONE',  ( 22.85000000000000142, 0.000000000000000000, -0.2000000000000000111 ) ) ;
#244 = CARTESIAN_POINT ( 'NONE',  ( -25.00000000000000000, 3.061616997868383043E-15, 4.500000000000000000 ) ) ;
#245 = CARTESIAN_POINT ( 'NONE',  ( 0.000000000000000000, 0.000000000000000000, -0.2000000000000000111 ) ) ;
#246 = EDGE_CURVE ( 'NONE', #282, #125, #138, .T. ) ;
#247 = VERTEX_POINT ( 'NONE', #73 ) ;
#248 = DIRECTION ( 'NONE',  ( 0.000000000000000000, 0.000000000000000000, 1.000000000000000000 ) ) ;
#249 = DIRECTION ( 'NONE',  ( 1.000000000000000000, 0.000000000000000000, -0.000000000000000000 ) ) ;
#250 = PERSON_AND_ORGANIZATION_ROLE ( 'design_supplier' ) ;
#251 = AXIS2_PLACEMENT_3D ( 'NONE', #307, #248, #252 ) ;
#252 = DIRECTION ( 'NONE',  ( 1.000000000000000000, 0.000000000000000000, 0.000000000000000000 ) ) ;
#253 = ORIENTED_EDGE ( 'NONE', *, *, #39, .F. ) ;
#254 = CARTESIAN_POINT ( 'NONE',  ( 22.85000000000000142, 0.000000000000000000, -0.2000000000000000111 ) ) ;
#255 = LOCAL_TIME ( 13, 59, 54.00000000000000000, #116 ) ;
#256 = ORIENTED_EDGE ( 'NONE', *, *, #280, .F. ) ;
#257 = CC_DESIGN_DATE_AND_TIME_ASSIGNMENT ( #87, #225, ( #135 ) ) ;
#258 = EDGE_CURVE ( 'NONE', #43, #189, #330, .T. ) ;
#259 = ORIENTED_EDGE ( 'NONE', *, *, #151, .T. ) ;
#260 = ORIENTED_EDGE ( 'NONE', *, *, #136, .F. ) ;
#261 = CC_DESIGN_PERSON_AND_ORGANIZATION_ASSIGNMENT ( #40, #181, ( #58 ) ) ;
#262 = CARTESIAN_POINT ( 'NONE',  ( 22.85000000000000142, 0.000000000000000000, 3.000000000000000000 ) ) ;
#263 = ADVANCED_FACE ( 'NONE', ( #218 ), #276, .T. ) ;
#264 = CIRCLE ( 'NONE', #118, 25.00000000000000000 ) ;
#265 = ORIENTED_EDGE ( 'NONE', *, *, #258, .F. ) ;
#266 = AXIS2_PLACEMENT_3D ( 'NONE', #245, #121, #123 ) ;
#267 = CARTESIAN_POINT ( 'NONE',  ( 25.00000000000000000, 0.000000000000000000, -0.2000000000000000111 ) ) ;
#268 = CARTESIAN_POINT ( 'NONE',  ( -22.85000000000000142, 2.798317936051702316E-15, 0.000000000000000000 ) ) ;
#269 = DIRECTION ( 'NONE',  ( 1.000000000000000000, 0.000000000000000000, 0.000000000000000000 ) ) ;
#270 = PERSON_AND_ORGANIZATION ( #316, #185 ) ;
#271 = VERTEX_POINT ( 'NONE', #126 ) ;
#272 = PERSON_AND_ORGANIZATION_ROLE ( 'creator' ) ;
#273 = EDGE_CURVE ( 'NONE', #189, #156, #198, .T. ) ;
#274 = CALENDAR_DATE ( 2021, 23, 4 ) ;
#275 = CARTESIAN_POINT ( 'NONE',  ( 0.000000000000000000, 0.000000000000000000, 3.000000000000000000 ) ) ;
#276 = CYLINDRICAL_SURFACE ( 'NONE', #284, 25.00000000000000000 ) ;
#277 = PLANE ( 'NONE',  #231 ) ;
#278 = CARTESIAN_POINT ( 'NONE',  ( 0.000000000000000000, 0.000000000000000000, -0.2000000000000000111 ) ) ;
#279 = DIRECTION ( 'NONE',  ( 1.000000000000000000, 0.000000000000000000, -0.000000000000000000 ) ) ;
#280 = EDGE_CURVE ( 'NONE', #163, #156, #220, .T. ) ;
#281 = LINE ( 'NONE', #74, #25 ) ;
#282 = VERTEX_POINT ( 'NONE', #105 ) ;
#283 = FACE_OUTER_BOUND ( 'NONE', #313, .T. ) ;
#284 = AXIS2_PLACEMENT_3D ( 'NONE', #148, #172, #21 ) ;
#285 = FACE_BOUND ( 'NONE', #175, .T. ) ;
#286 = CIRCLE ( 'NONE', #91, 22.85000000000000142 ) ;
#287 = ORIENTED_EDGE ( 'NONE', *, *, #273, .T. ) ;
#288 = CYLINDRICAL_SURFACE ( 'NONE', #112, 22.85000000000000142 ) ;
#289 = AXIS2_PLACEMENT_3D ( 'NONE', #187, #142, #164 ) ;
#290 = CARTESIAN_POINT ( 'NONE',  ( 0.000000000000000000, 0.000000000000000000, 4.500000000000000000 ) ) ;
#291 = DIRECTION ( 'NONE',  ( 1.000000000000000000, 0.000000000000000000, 0.000000000000000000 ) ) ;
#292 = ADVANCED_FACE ( 'NONE', ( #66 ), #227, .T. ) ;
#293 = CC_DESIGN_PERSON_AND_ORGANIZATION_ASSIGNMENT ( #209, #250, ( #58 ) ) ;
#294 = DIRECTION ( 'NONE',  ( 0.000000000000000000, 0.000000000000000000, 1.000000000000000000 ) ) ;
#295 = APPROVAL_DATE_TIME ( #36, #80 ) ;
#296 = EDGE_LOOP ( 'NONE', ( #194, #134, #332, #7 ) ) ;
#297 = EDGE_CURVE ( 'NONE', #43, #163, #146, .T. ) ;
#298 = CARTESIAN_POINT ( 'NONE',  ( 0.000000000000000000, 0.000000000000000000, -0.2000000000000000111 ) ) ;
#299 = LOCAL_TIME ( 13, 59, 54.00000000000000000, #11 ) ;
#300 = ORIENTED_EDGE ( 'NONE', *, *, #104, .T. ) ;
#301 = CC_DESIGN_APPROVAL ( #149, ( #9 ) ) ;
#302 = APPROVAL_ROLE ( '' ) ;
#303 = DIRECTION ( 'NONE',  ( 0.000000000000000000, 0.000000000000000000, 1.000000000000000000 ) ) ;
#304 = AXIS2_PLACEMENT_3D ( 'NONE', #290, #320, #165 ) ;
#305 = FACE_OUTER_BOUND ( 'NONE', #182, .T. ) ;
#306 = VERTEX_POINT ( 'NONE', #254 ) ;
#307 = CARTESIAN_POINT ( 'NONE',  ( 0.000000000000000000, 0.000000000000000000, 4.500000000000000000 ) ) ;
#308 = CC_DESIGN_PERSON_AND_ORGANIZATION_ASSIGNMENT ( #229, #103, ( #217 ) ) ;
#309 = CALENDAR_DATE ( 2021, 23, 4 ) ;
#310 = CYLINDRICAL_SURFACE ( 'NONE', #62, 22.85000000000000142 ) ;
#311 = AXIS2_PLACEMENT_3D ( 'NONE', #119, #167, #291 ) ;
#312 = APPROVAL_PERSON_ORGANIZATION ( #270, #80, #206 ) ;
#313 = EDGE_LOOP ( 'NONE', ( #186, #287 ) ) ;
#314 = CARTESIAN_POINT ( 'NONE',  ( 0.000000000000000000, 0.000000000000000000, 3.000000000000000000 ) ) ;
#315 = EDGE_LOOP ( 'NONE', ( #259, #2 ) ) ;
#316 = PERSON ( 'UNSPECIFIED', 'UNSPECIFIED', 'UNSPECIFIED', ('UNSPECIFIED'), ('UNSPECIFIED'), ('UNSPECIFIED') ) ;
#317 = CARTESIAN_POINT ( 'NONE',  ( 0.000000000000000000, 0.000000000000000000, -0.2000000000000000111 ) ) ;
#318 = ADVANCED_FACE ( 'NONE', ( #6, #143 ), #154, .F. ) ;
#319 = CC_DESIGN_APPROVAL ( #80, ( #135 ) ) ;
#320 = DIRECTION ( 'NONE',  ( 0.000000000000000000, 0.000000000000000000, 1.000000000000000000 ) ) ;
#321 = ADVANCED_FACE ( 'NONE', ( #150 ), #277, .F. ) ;
#322 = DIRECTION ( 'NONE',  ( 0.000000000000000000, 0.000000000000000000, 1.000000000000000000 ) ) ;
#323 = VECTOR ( 'NONE', #101, 1000.000000000000000 ) ;
#324 = ORIENTED_EDGE ( 'NONE', *, *, #297, .T. ) ;
#325 = DIRECTION ( 'NONE',  ( 0.000000000000000000, 0.000000000000000000, 1.000000000000000000 ) ) ;
#326 = CARTESIAN_POINT ( 'NONE',  ( 25.00000000000000000, 0.000000000000000000, 4.500000000000000000 ) ) ;
#327 = DATE_AND_TIME ( #274, #124 ) ;
#328 = EDGE_LOOP ( 'NONE', ( #223, #37, #71, #51 ) ) ;
#329 = AXIS2_PLACEMENT_3D ( 'NONE', #298, #325, #20 ) ;
#330 = LINE ( 'NONE', #199, #120 ) ;
#331 =( LENGTH_UNIT ( ) NAMED_UNIT ( * ) SI_UNIT ( .MILLI., .METRE. ) );
#332 = ORIENTED_EDGE ( 'NONE', *, *, #151, .F. ) ;
#333 = DIRECTION ( 'NONE',  ( 0.000000000000000000, 0.000000000000000000, 1.000000000000000000 ) ) ;
#334 =( NAMED_UNIT ( * ) SI_UNIT ( $, .STERADIAN. ) SOLID_ANGLE_UNIT ( ) );
#335 = PRODUCT_RELATED_PRODUCT_CATEGORY ( 'detail', '', ( #217 ) ) ;
ENDSEC;
END-ISO-10303-21;
