ISO-10303-21;
HEADER;
FILE_DESCRIPTION (( 'STEP AP203' ),
    '1' );
FILE_NAME ('Web Model 34243_34246.step',
    '2017-06-05T13:29:37',
    ( '' ),
    ( '' ),
    'SwSTEP 2.0',
    'SolidWorks 2016',
    '' );
FILE_SCHEMA (( 'CONFIG_CONTROL_DESIGN' ));
ENDSEC;

DATA;
#1 = COORDINATED_UNIVERSAL_TIME_OFFSET ( 5, 0, .BEHIND. ) ;
#2 = EDGE_CURVE ( 'NONE', #58, #110, #47, .T. ) ;
#3 = LINE ( 'NONE', #120, #48 ) ;
#4 = CARTESIAN_POINT ( 'NONE',  ( 25.00000000000000000, -25.00000000000000000, 0.0000000000000000000 ) ) ;
#5 = COORDINATED_UNIVERSAL_TIME_OFFSET ( 5, 0, .BEHIND. ) ;
#6 = DIRECTION ( 'NONE',  ( 1.000000000000000000, 0.0000000000000000000, -0.0000000000000000000 ) ) ;
#7 = DIRECTION ( 'NONE',  ( 0.0000000000000000000, 0.0000000000000000000, 1.000000000000000000 ) ) ;
#8 = DIRECTION ( 'NONE',  ( -0.0000000000000000000, -0.0000000000000000000, 1.000000000000000000 ) ) ;
#9 = ORIENTED_EDGE ( 'NONE', *, *, #159, .F. ) ;
#10 = CC_DESIGN_PERSON_AND_ORGANIZATION_ASSIGNMENT ( #161, #118, ( #37 ) ) ;
#11 = DIRECTION ( 'NONE',  ( 1.000000000000000000, 0.0000000000000000000, 0.0000000000000000000 ) ) ;
#12 = DIRECTION ( 'NONE',  ( 1.000000000000000000, 0.0000000000000000000, 0.0000000000000000000 ) ) ;
#13 = PERSON_AND_ORGANIZATION ( #74, #72 ) ;
#14 = PERSON_AND_ORGANIZATION_ROLE ( 'classification_officer' ) ;
#15 = CALENDAR_DATE ( 2017, 5, 6 ) ;
#16 =( BOUNDED_CURVE ( )  B_SPLINE_CURVE ( 3, ( #90, #150, #53, #103 ),
 .UNSPECIFIED., .F., .T. ) 
 B_SPLINE_CURVE_WITH_KNOTS ( ( 4, 4 ),
 ( 4.712388980384689700, 7.853981633974482800 ),
 .UNSPECIFIED. ) 
 CURVE ( )  GEOMETRIC_REPRESENTATION_ITEM ( )  RATIONAL_B_SPLINE_CURVE ( ( 1.000000000000000000, 0.3333333333333333700, 0.3333333333333333700, 1.000000000000000000 ) ) 
 REPRESENTATION_ITEM ( '' )  );
#17 = CC_DESIGN_SECURITY_CLASSIFICATION ( #122, ( #37 ) ) ;
#18 = EDGE_LOOP ( 'NONE', ( #125, #136, #76, #44 ) ) ;
#19 = PERSON_AND_ORGANIZATION ( #74, #72 ) ;
#20 = CALENDAR_DATE ( 2017, 5, 6 ) ;
#21 = ORIENTED_EDGE ( 'NONE', *, *, #159, .T. ) ;
#22 = APPROVAL ( #168, 'UNSPECIFIED' ) ;
#23 = CARTESIAN_POINT ( 'NONE',  ( 25.00000000000000000, 25.00000000000000000, -3.000000000000000000 ) ) ;
#24 = CARTESIAN_POINT ( 'NONE',  ( 25.00000000000000000, 0.0000000000000000000, -3.218171694768792600 ) ) ;
#25 = APPROVAL_PERSON_ORGANIZATION ( #13, #95, #154 ) ;
#26 =( BOUNDED_CURVE ( )  B_SPLINE_CURVE ( 3, ( #24, #54, #139, #81 ),
 .UNSPECIFIED., .F., .T. ) 
 B_SPLINE_CURVE_WITH_KNOTS ( ( 4, 4 ),
 ( 1.570796326794896600, 4.712388980384689700 ),
 .UNSPECIFIED. ) 
 CURVE ( )  GEOMETRIC_REPRESENTATION_ITEM ( )  RATIONAL_B_SPLINE_CURVE ( ( 1.000000000000000000, 0.3333333333333333700, 0.3333333333333333700, 1.000000000000000000 ) ) 
 REPRESENTATION_ITEM ( '' )  );
#27 = CLOSED_SHELL ( 'NONE', ( #162, #75, #111, #77 ) ) ;
#28 = CARTESIAN_POINT ( 'NONE',  ( 0.0000000000000000000, 0.0000000000000000000, -3.436343389537585700 ) ) ;
#29 = CARTESIAN_POINT ( 'NONE',  ( 0.0000000000000000000, 0.0000000000000000000, 0.0000000000000000000 ) ) ;
#30 = COORDINATED_UNIVERSAL_TIME_OFFSET ( 5, 0, .BEHIND. ) ;
#31 = DIRECTION ( 'NONE',  ( -0.0000000000000000000, -0.0000000000000000000, 1.000000000000000000 ) ) ;
#32 = APPROVAL_STATUS ( 'not_yet_approved' ) ;
#33 = CC_DESIGN_DATE_AND_TIME_ASSIGNMENT ( #173, #93, ( #106 ) ) ;
#34 = LOCAL_TIME ( 9, 29, 37.00000000000000000, #66 ) ;
#35 = PRODUCT_RELATED_PRODUCT_CATEGORY ( 'detail', '', ( #123 ) ) ;
#36 = FACE_OUTER_BOUND ( 'NONE', #82, .T. ) ;
#37 = PRODUCT_DEFINITION_FORMATION_WITH_SPECIFIED_SOURCE ( 'ANY', '', #123, .NOT_KNOWN. ) ;
#38 = PERSON_AND_ORGANIZATION ( #74, #72 ) ;
#39 = MANIFOLD_SOLID_BREP ( 'Cut-Extrude1', #27 ) ;
#40 = PLANE ( 'NONE',  #49 ) ;
#41 = CYLINDRICAL_SURFACE ( 'NONE', #160, 25.00000000000000000 ) ;
#42 = DIRECTION ( 'NONE',  ( 1.000000000000000000, 0.0000000000000000000, 0.0000000000000000000 ) ) ;
#43 =( GEOMETRIC_REPRESENTATION_CONTEXT ( 3 ) GLOBAL_UNCERTAINTY_ASSIGNED_CONTEXT ( ( #146 ) ) GLOBAL_UNIT_ASSIGNED_CONTEXT ( ( #171, #104, #105 ) ) REPRESENTATION_CONTEXT ( 'NONE', 'WORKASPACE' ) );
#44 = ORIENTED_EDGE ( 'NONE', *, *, #46, .F. ) ;
#45 = DIRECTION ( 'NONE',  ( 0.0000000000000000000, 0.0000000000000000000, 1.000000000000000000 ) ) ;
#46 = EDGE_CURVE ( 'NONE', #108, #110, #147, .T. ) ;
#47 = LINE ( 'NONE', #115, #134 ) ;
#48 = VECTOR ( 'NONE', #31, 1000.000000000000000 ) ;
#49 = AXIS2_PLACEMENT_3D ( 'NONE', #23, #113, #127 ) ;
#50 = CIRCLE ( 'NONE', #102, 25.00000000000000000 ) ;
#51 = CC_DESIGN_APPROVAL ( #156, ( #106 ) ) ;
#52 = APPROVAL_PERSON_ORGANIZATION ( #86, #156, #67 ) ;
#53 = CARTESIAN_POINT ( 'NONE',  ( 25.00000000000001100, 50.00000000000000000, -2.781828305231206900 ) ) ;
#54 = CARTESIAN_POINT ( 'NONE',  ( 25.00000000000001100, -50.00000000000000000, -3.654515084306378300 ) ) ;
#55 = DIRECTION ( 'NONE',  ( 1.000000000000000000, 0.0000000000000000000, 0.0000000000000000000 ) ) ;
#56 = CARTESIAN_POINT ( 'NONE',  ( 0.0000000000000000000, 0.0000000000000000000, -3.436343389537585700 ) ) ;
#57 = PERSON_AND_ORGANIZATION_ROLE ( 'design_owner' ) ;
#58 = VERTEX_POINT ( 'NONE', #152 ) ;
#59 = CALENDAR_DATE ( 2017, 5, 6 ) ;
#60 = LOCAL_TIME ( 9, 29, 37.00000000000000000, #5 ) ;
#61 = ORIENTED_EDGE ( 'NONE', *, *, #63, .T. ) ;
#62 = CC_DESIGN_APPROVAL ( #95, ( #37 ) ) ;
#63 = EDGE_CURVE ( 'NONE', #116, #58, #16, .T. ) ;
#64 = DIRECTION ( 'NONE',  ( -0.0000000000000000000, -0.0000000000000000000, 1.000000000000000000 ) ) ;
#65 = LOCAL_TIME ( 9, 29, 37.00000000000000000, #148 ) ;
#66 = COORDINATED_UNIVERSAL_TIME_OFFSET ( 5, 0, .BEHIND. ) ;
#67 = APPROVAL_ROLE ( '' ) ;
#68 = CARTESIAN_POINT ( 'NONE',  ( 0.0000000000000000000, 0.0000000000000000000, 0.0000000000000000000 ) ) ;
#69 = DATE_AND_TIME ( #124, #60 ) ;
#70 = APPLICATION_CONTEXT ( 'configuration controlled 3d designs of mechanical parts and assemblies' ) ;
#71 = PERSON_AND_ORGANIZATION ( #74, #72 ) ;
#72 = ORGANIZATION ( 'UNSPECIFIED', 'UNSPECIFIED', '' ) ;
#73 = EDGE_CURVE ( 'NONE', #58, #116, #26, .T. ) ;
#74 = PERSON ( 'UNSPECIFIED', 'UNSPECIFIED', 'UNSPECIFIED', ('UNSPECIFIED'), ('UNSPECIFIED'), ('UNSPECIFIED') ) ;
#75 = ADVANCED_FACE ( 'NONE', ( #141 ), #78, .T. ) ;
#76 = ORIENTED_EDGE ( 'NONE', *, *, #2, .T. ) ;
#77 = ADVANCED_FACE ( 'NONE', ( #36 ), #40, .T. ) ;
#78 = PLANE ( 'NONE',  #149 ) ;
#79 = APPROVAL_DATE_TIME ( #163, #156 ) ;
#80 = ORIENTED_EDGE ( 'NONE', *, *, #112, .T. ) ;
#81 = CARTESIAN_POINT ( 'NONE',  ( -25.00000000000000000, 3.061616997868383000E-015, -3.218171694768792600 ) ) ;
#82 = EDGE_LOOP ( 'NONE', ( #98, #61 ) ) ;
#83 = AXIS2_PLACEMENT_3D ( 'NONE', #166, #7, #55 ) ;
#84 = APPROVAL_STATUS ( 'not_yet_approved' ) ;
#85 = AXIS2_PLACEMENT_3D ( 'NONE', #29, #45, #42 ) ;
#86 = PERSON_AND_ORGANIZATION ( #74, #72 ) ;
#87 = SHAPE_DEFINITION_REPRESENTATION ( #119, #165 ) ;
#88 = DIRECTION ( 'NONE',  ( 0.0000000000000000000, 0.0000000000000000000, 1.000000000000000000 ) ) ;
#89 = EDGE_LOOP ( 'NONE', ( #21, #138 ) ) ;
#90 = CARTESIAN_POINT ( 'NONE',  ( -25.00000000000000000, 3.061616997868383000E-015, -3.218171694768792600 ) ) ;
#91 = APPROVAL_ROLE ( '' ) ;
#92 = CARTESIAN_POINT ( 'NONE',  ( -25.00000000000000000, 3.061616997868383000E-015, -3.218171694768792600 ) ) ;
#93 = DATE_TIME_ROLE ( 'creation_date' ) ;
#94 = SECURITY_CLASSIFICATION_LEVEL ( 'unclassified' ) ;
#95 = APPROVAL ( #84, 'UNSPECIFIED' ) ;
#96 = CARTESIAN_POINT ( 'NONE',  ( -25.00000000000000000, 3.061616997868383000E-015, 0.0000000000000000000 ) ) ;
#97 = LOCAL_TIME ( 9, 29, 37.00000000000000000, #1 ) ;
#98 = ORIENTED_EDGE ( 'NONE', *, *, #73, .T. ) ;
#99 = LOCAL_TIME ( 9, 29, 37.00000000000000000, #30 ) ;
#100 = APPROVAL_PERSON_ORGANIZATION ( #133, #22, #91 ) ;
#101 = DESIGN_CONTEXT ( 'detailed design', #145, 'design' ) ;
#102 = AXIS2_PLACEMENT_3D ( 'NONE', #68, #130, #11 ) ;
#103 = CARTESIAN_POINT ( 'NONE',  ( 25.00000000000000000, 0.0000000000000000000, -3.218171694768792600 ) ) ;
#104 =( NAMED_UNIT ( * ) PLANE_ANGLE_UNIT ( ) SI_UNIT ( $, .RADIAN. ) );
#105 =( NAMED_UNIT ( * ) SI_UNIT ( $, .STERADIAN. ) SOLID_ANGLE_UNIT ( ) );
#106 = PRODUCT_DEFINITION ( 'UNKNOWN', '', #37, #101 ) ;
#107 = DATE_TIME_ROLE ( 'classification_date' ) ;
#108 = VERTEX_POINT ( 'NONE', #96 ) ;
#109 = FACE_OUTER_BOUND ( 'NONE', #174, .T. ) ;
#110 = VERTEX_POINT ( 'NONE', #143 ) ;
#111 = ADVANCED_FACE ( 'NONE', ( #114 ), #151, .T. ) ;
#112 = EDGE_CURVE ( 'NONE', #116, #108, #3, .T. ) ;
#113 = DIRECTION ( 'NONE',  ( 0.0000000000000000000, 0.008726535498366857000, -0.9999619230641714200 ) ) ;
#114 = FACE_OUTER_BOUND ( 'NONE', #18, .T. ) ;
#115 = CARTESIAN_POINT ( 'NONE',  ( 25.00000000000000000, 0.0000000000000000000, -3.436343389537585700 ) ) ;
#116 = VERTEX_POINT ( 'NONE', #92 ) ;
#117 = MECHANICAL_CONTEXT ( 'NONE', #70, 'mechanical' ) ;
#118 = PERSON_AND_ORGANIZATION_ROLE ( 'design_supplier' ) ;
#119 = PRODUCT_DEFINITION_SHAPE ( 'NONE', 'NONE',  #106 ) ;
#120 = CARTESIAN_POINT ( 'NONE',  ( -25.00000000000000000, 3.061616997868383000E-015, -3.436343389537585700 ) ) ;
#121 = APPROVAL_DATE_TIME ( #157, #95 ) ;
#122 = SECURITY_CLASSIFICATION ( '', '', #94 ) ;
#123 = PRODUCT ( 'Web Model 34243_34246', 'Web Model 34243_34246', '', ( #117 ) ) ;
#124 = CALENDAR_DATE ( 2017, 5, 6 ) ;
#125 = ORIENTED_EDGE ( 'NONE', *, *, #112, .F. ) ;
#126 = DATE_AND_TIME ( #137, #65 ) ;
#127 = DIRECTION ( 'NONE',  ( 0.0000000000000000000, 0.9999619230641713100, 0.008726535498366855300 ) ) ;
#128 = CC_DESIGN_DATE_AND_TIME_ASSIGNMENT ( #126, #107, ( #122 ) ) ;
#129 = DIRECTION ( 'NONE',  ( -0.0000000000000000000, -0.0000000000000000000, 1.000000000000000000 ) ) ;
#130 = DIRECTION ( 'NONE',  ( 0.0000000000000000000, 0.0000000000000000000, 1.000000000000000000 ) ) ;
#131 = AXIS2_PLACEMENT_3D ( 'NONE', #56, #64, #169 ) ;
#132 = CC_DESIGN_PERSON_AND_ORGANIZATION_ASSIGNMENT ( #71, #172, ( #37 ) ) ;
#133 = PERSON_AND_ORGANIZATION ( #74, #72 ) ;
#134 = VECTOR ( 'NONE', #8, 1000.000000000000000 ) ;
#135 = CC_DESIGN_PERSON_AND_ORGANIZATION_ASSIGNMENT ( #164, #155, ( #106 ) ) ;
#136 = ORIENTED_EDGE ( 'NONE', *, *, #73, .F. ) ;
#137 = CALENDAR_DATE ( 2017, 5, 6 ) ;
#138 = ORIENTED_EDGE ( 'NONE', *, *, #46, .T. ) ;
#139 = CARTESIAN_POINT ( 'NONE',  ( -25.00000000000000000, -50.00000000000000000, -3.654515084306378300 ) ) ;
#140 = CC_DESIGN_PERSON_AND_ORGANIZATION_ASSIGNMENT ( #38, #14, ( #122 ) ) ;
#141 = FACE_OUTER_BOUND ( 'NONE', #89, .T. ) ;
#142 = APPLICATION_PROTOCOL_DEFINITION ( 'international standard', 'config_control_design', 1994, #145 ) ;
#143 = CARTESIAN_POINT ( 'NONE',  ( 25.00000000000000000, 0.0000000000000000000, 0.0000000000000000000 ) ) ;
#144 = APPROVAL_DATE_TIME ( #69, #22 ) ;
#145 = APPLICATION_CONTEXT ( 'configuration controlled 3d designs of mechanical parts and assemblies' ) ;
#146 = UNCERTAINTY_MEASURE_WITH_UNIT (LENGTH_MEASURE( 1.000000000000000100E-005 ), #171, 'distance_accuracy_value', 'NONE');
#147 = CIRCLE ( 'NONE', #83, 25.00000000000000000 ) ;
#148 = COORDINATED_UNIVERSAL_TIME_OFFSET ( 5, 0, .BEHIND. ) ;
#149 = AXIS2_PLACEMENT_3D ( 'NONE', #4, #88, #6 ) ;
#150 = CARTESIAN_POINT ( 'NONE',  ( -25.00000000000002100, 50.00000000000000000, -2.781828305231206900 ) ) ;
#151 = CYLINDRICAL_SURFACE ( 'NONE', #131, 25.00000000000000000 ) ;
#152 = CARTESIAN_POINT ( 'NONE',  ( 25.00000000000000000, 0.0000000000000000000, -3.218171694768792600 ) ) ;
#153 = APPLICATION_PROTOCOL_DEFINITION ( 'international standard', 'config_control_design', 1994, #70 ) ;
#154 = APPROVAL_ROLE ( '' ) ;
#155 = PERSON_AND_ORGANIZATION_ROLE ( 'creator' ) ;
#156 = APPROVAL ( #32, 'UNSPECIFIED' ) ;
#157 = DATE_AND_TIME ( #59, #97 ) ;
#158 = ORIENTED_EDGE ( 'NONE', *, *, #2, .F. ) ;
#159 = EDGE_CURVE ( 'NONE', #110, #108, #50, .T. ) ;
#160 = AXIS2_PLACEMENT_3D ( 'NONE', #28, #129, #12 ) ;
#161 = PERSON_AND_ORGANIZATION ( #74, #72 ) ;
#162 = ADVANCED_FACE ( 'NONE', ( #109 ), #41, .T. ) ;
#163 = DATE_AND_TIME ( #15, #34 ) ;
#164 = PERSON_AND_ORGANIZATION ( #74, #72 ) ;
#165 = ADVANCED_BREP_SHAPE_REPRESENTATION ( 'Web Model 34243_34246', ( #39, #85 ), #43 ) ;
#166 = CARTESIAN_POINT ( 'NONE',  ( 0.0000000000000000000, 0.0000000000000000000, 0.0000000000000000000 ) ) ;
#167 = CC_DESIGN_APPROVAL ( #22, ( #122 ) ) ;
#168 = APPROVAL_STATUS ( 'not_yet_approved' ) ;
#169 = DIRECTION ( 'NONE',  ( 1.000000000000000000, 0.0000000000000000000, 0.0000000000000000000 ) ) ;
#170 = CC_DESIGN_PERSON_AND_ORGANIZATION_ASSIGNMENT ( #19, #57, ( #123 ) ) ;
#171 =( LENGTH_UNIT ( ) NAMED_UNIT ( * ) SI_UNIT ( .MILLI., .METRE. ) );
#172 = PERSON_AND_ORGANIZATION_ROLE ( 'creator' ) ;
#173 = DATE_AND_TIME ( #20, #99 ) ;
#174 = EDGE_LOOP ( 'NONE', ( #175, #80, #9, #158 ) ) ;
#175 = ORIENTED_EDGE ( 'NONE', *, *, #63, .F. ) ;
ENDSEC;
END-ISO-10303-21;
