ISO-10303-21;
HEADER;
FILE_DESCRIPTION (( 'STEP AP203' ),
    '1' );
FILE_NAME ('Web Model 68379.STEP',
    '2017-01-31T19:52:03',
    ( '' ),
    ( '' ),
    'SwSTEP 2.0',
    'SolidWorks 2016',
    '' );
FILE_SCHEMA (( 'CONFIG_CONTROL_DESIGN' ));
ENDSEC;

DATA;
#1 = CARTESIAN_POINT ( 'NONE',  ( -37.50000000000000700, 37.49999999999999300, 0.0000000000000000000 ) ) ;
#2 = DIRECTION ( 'NONE',  ( -9.251858538542970300E-017, 1.000000000000000000, 0.0000000000000000000 ) ) ;
#3 = AXIS2_PLACEMENT_3D ( 'NONE', #135, #36, #196 ) ;
#4 = LINE ( 'NONE', #108, #205 ) ;
#5 = EDGE_LOOP ( 'NONE', ( #236, #227, #48, #6 ) ) ;
#6 = ORIENTED_EDGE ( 'NONE', *, *, #164, .T. ) ;
#7 = AXIS2_PLACEMENT_3D ( 'NONE', #35, #75, #103 ) ;
#8 = CARTESIAN_POINT ( 'NONE',  ( -37.50000000000000700, 37.49999999999999300, 3.000000000000000000 ) ) ;
#9 = EDGE_CURVE ( 'NONE', #24, #144, #112, .T. ) ;
#10 = LINE ( 'NONE', #57, #133 ) ;
#11 = PERSON_AND_ORGANIZATION_ROLE ( 'design_supplier' ) ;
#12 = ORIENTED_EDGE ( 'NONE', *, *, #200, .F. ) ;
#13 = VECTOR ( 'NONE', #109, 1000.000000000000000 ) ;
#14 = CC_DESIGN_PERSON_AND_ORGANIZATION_ASSIGNMENT ( #111, #11, ( #197 ) ) ;
#15 = SHAPE_DEFINITION_REPRESENTATION ( #237, #173 ) ;
#16 = CARTESIAN_POINT ( 'NONE',  ( 37.50000000000000000, -37.49999999999999300, 3.000000000000000000 ) ) ;
#17 = ADVANCED_FACE ( 'NONE', ( #32 ), #152, .T. ) ;
#18 = COORDINATED_UNIVERSAL_TIME_OFFSET ( 5, 0, .BEHIND. ) ;
#19 = PLANE ( 'NONE',  #188 ) ;
#20 = DIRECTION ( 'NONE',  ( 1.000000000000000000, 1.850371707708594300E-016, -0.0000000000000000000 ) ) ;
#21 = UNCERTAINTY_MEASURE_WITH_UNIT (LENGTH_MEASURE( 1.000000000000000100E-005 ), #122, 'distance_accuracy_value', 'NONE');
#22 =( NAMED_UNIT ( * ) SI_UNIT ( $, .STERADIAN. ) SOLID_ANGLE_UNIT ( ) );
#23 = COORDINATED_UNIVERSAL_TIME_OFFSET ( 5, 0, .BEHIND. ) ;
#24 = VERTEX_POINT ( 'NONE', #212 ) ;
#25 = CARTESIAN_POINT ( 'NONE',  ( 37.50000000000000000, -37.49999999999999300, 3.000000000000000000 ) ) ;
#26 = MECHANICAL_CONTEXT ( 'NONE', #141, 'mechanical' ) ;
#27 = APPROVAL_ROLE ( '' ) ;
#28 = APPROVAL ( #41, 'UNSPECIFIED' ) ;
#29 = ORIENTED_EDGE ( 'NONE', *, *, #168, .F. ) ;
#30 = SECURITY_CLASSIFICATION ( '', '', #83 ) ;
#31 = VECTOR ( 'NONE', #117, 1000.000000000000000 ) ;
#32 = FACE_OUTER_BOUND ( 'NONE', #85, .T. ) ;
#33 = APPROVAL_DATE_TIME ( #222, #28 ) ;
#34 = ORIENTED_EDGE ( 'NONE', *, *, #110, .T. ) ;
#35 = CARTESIAN_POINT ( 'NONE',  ( 37.50000000000000000, 37.49999999999999300, 3.000000000000000000 ) ) ;
#36 = DIRECTION ( 'NONE',  ( 0.0000000000000000000, 0.0000000000000000000, -1.000000000000000000 ) ) ;
#37 = ORIENTED_EDGE ( 'NONE', *, *, #231, .T. ) ;
#38 = LINE ( 'NONE', #25, #102 ) ;
#39 = APPLICATION_PROTOCOL_DEFINITION ( 'international standard', 'config_control_design', 1994, #141 ) ;
#40 = CARTESIAN_POINT ( 'NONE',  ( -37.50000000000000000, -37.50000000000000700, 3.000000000000000000 ) ) ;
#41 = APPROVAL_STATUS ( 'not_yet_approved' ) ;
#42 = LOCAL_TIME ( 14, 52, 3.000000000000000000, #80 ) ;
#43 = ORIENTED_EDGE ( 'NONE', *, *, #98, .T. ) ;
#44 = DIRECTION ( 'NONE',  ( 0.0000000000000000000, -0.0000000000000000000, -1.000000000000000000 ) ) ;
#45 = PERSON ( 'UNSPECIFIED', 'UNSPECIFIED', 'UNSPECIFIED', ('UNSPECIFIED'), ('UNSPECIFIED'), ('UNSPECIFIED') ) ;
#46 =( GEOMETRIC_REPRESENTATION_CONTEXT ( 3 ) GLOBAL_UNCERTAINTY_ASSIGNED_CONTEXT ( ( #21 ) ) GLOBAL_UNIT_ASSIGNED_CONTEXT ( ( #122, #178, #22 ) ) REPRESENTATION_CONTEXT ( 'NONE', 'WORKASPACE' ) );
#47 = CC_DESIGN_PERSON_AND_ORGANIZATION_ASSIGNMENT ( #95, #145, ( #64 ) ) ;
#48 = ORIENTED_EDGE ( 'NONE', *, *, #187, .T. ) ;
#49 = CC_DESIGN_PERSON_AND_ORGANIZATION_ASSIGNMENT ( #97, #63, ( #30 ) ) ;
#50 = PERSON_AND_ORGANIZATION ( #45, #143 ) ;
#51 = ORIENTED_EDGE ( 'NONE', *, *, #98, .F. ) ;
#52 = DIRECTION ( 'NONE',  ( -1.000000000000000000, 0.0000000000000000000, -0.0000000000000000000 ) ) ;
#53 = ADVANCED_FACE ( 'NONE', ( #82 ), #19, .F. ) ;
#54 = FACE_OUTER_BOUND ( 'NONE', #131, .T. ) ;
#55 = CARTESIAN_POINT ( 'NONE',  ( 37.50000000000000000, -37.49999999999999300, 3.000000000000000000 ) ) ;
#56 = ADVANCED_FACE ( 'NONE', ( #107 ), #88, .F. ) ;
#57 = CARTESIAN_POINT ( 'NONE',  ( 37.50000000000000000, 37.49999999999999300, 3.000000000000000000 ) ) ;
#58 = DATE_AND_TIME ( #165, #113 ) ;
#59 = APPLICATION_CONTEXT ( 'configuration controlled 3d designs of mechanical parts and assemblies' ) ;
#60 = ORIENTED_EDGE ( 'NONE', *, *, #208, .F. ) ;
#61 = DATE_TIME_ROLE ( 'creation_date' ) ;
#62 = LOCAL_TIME ( 14, 52, 3.000000000000000000, #23 ) ;
#63 = PERSON_AND_ORGANIZATION_ROLE ( 'classification_officer' ) ;
#64 = PRODUCT ( 'Web Model 68379', 'Web Model 68379', '', ( #26 ) ) ;
#65 = ORIENTED_EDGE ( 'NONE', *, *, #171, .F. ) ;
#66 = FACE_OUTER_BOUND ( 'NONE', #5, .T. ) ;
#67 = APPROVAL_DATE_TIME ( #58, #209 ) ;
#68 = VECTOR ( 'NONE', #20, 1000.000000000000000 ) ;
#69 = DIRECTION ( 'NONE',  ( -0.0000000000000000000, -0.0000000000000000000, -1.000000000000000000 ) ) ;
#70 = PRODUCT_RELATED_PRODUCT_CATEGORY ( 'detail', '', ( #64 ) ) ;
#71 = DATE_AND_TIME ( #176, #138 ) ;
#72 = AXIS2_PLACEMENT_3D ( 'NONE', #106, #155, #146 ) ;
#73 = CARTESIAN_POINT ( 'NONE',  ( 37.50000000000000000, -37.49999999999999300, 3.000000000000000000 ) ) ;
#74 = ADVANCED_FACE ( 'NONE', ( #126 ), #211, .F. ) ;
#75 = DIRECTION ( 'NONE',  ( -1.000000000000000000, 0.0000000000000000000, 0.0000000000000000000 ) ) ;
#76 = CARTESIAN_POINT ( 'NONE',  ( 37.50000000000000000, 37.49999999999999300, 0.0000000000000000000 ) ) ;
#77 = LINE ( 'NONE', #81, #226 ) ;
#78 = ORIENTED_EDGE ( 'NONE', *, *, #164, .F. ) ;
#79 = APPROVAL_ROLE ( '' ) ;
#80 = COORDINATED_UNIVERSAL_TIME_OFFSET ( 5, 0, .BEHIND. ) ;
#81 = CARTESIAN_POINT ( 'NONE',  ( 37.50000000000000000, 37.49999999999999300, 0.0000000000000000000 ) ) ;
#82 = FACE_OUTER_BOUND ( 'NONE', #89, .T. ) ;
#83 = SECURITY_CLASSIFICATION_LEVEL ( 'unclassified' ) ;
#84 = CC_DESIGN_PERSON_AND_ORGANIZATION_ASSIGNMENT ( #167, #161, ( #223 ) ) ;
#85 = EDGE_LOOP ( 'NONE', ( #60, #186, #129, #96 ) ) ;
#86 = DESIGN_CONTEXT ( 'detailed design', #59, 'design' ) ;
#87 = CARTESIAN_POINT ( 'NONE',  ( 37.50000000000000000, -37.49999999999999300, 0.0000000000000000000 ) ) ;
#88 = PLANE ( 'NONE',  #7 ) ;
#89 = EDGE_LOOP ( 'NONE', ( #124, #51, #12, #170 ) ) ;
#90 = DIRECTION ( 'NONE',  ( 9.251858538542971600E-017, -1.000000000000000000, 0.0000000000000000000 ) ) ;
#91 = DIRECTION ( 'NONE',  ( -1.000000000000000000, 0.0000000000000000000, 0.0000000000000000000 ) ) ;
#92 = LINE ( 'NONE', #76, #31 ) ;
#93 = VECTOR ( 'NONE', #69, 1000.000000000000000 ) ;
#94 = APPROVAL_STATUS ( 'not_yet_approved' ) ;
#95 = PERSON_AND_ORGANIZATION ( #45, #143 ) ;
#96 = ORIENTED_EDGE ( 'NONE', *, *, #9, .F. ) ;
#97 = PERSON_AND_ORGANIZATION ( #45, #143 ) ;
#98 = EDGE_CURVE ( 'NONE', #201, #24, #118, .T. ) ;
#99 = VERTEX_POINT ( 'NONE', #172 ) ;
#100 = CARTESIAN_POINT ( 'NONE',  ( -37.50000000000000000, -37.50000000000000700, 3.000000000000000000 ) ) ;
#101 = APPROVAL_DATE_TIME ( #71, #150 ) ;
#102 = VECTOR ( 'NONE', #198, 1000.000000000000000 ) ;
#103 = DIRECTION ( 'NONE',  ( 0.0000000000000000000, 0.0000000000000000000, 1.000000000000000000 ) ) ;
#104 = ADVANCED_FACE ( 'NONE', ( #66 ), #137, .F. ) ;
#105 = CC_DESIGN_APPROVAL ( #209, ( #197 ) ) ;
#106 = CARTESIAN_POINT ( 'NONE',  ( 0.0000000000000000000, 0.0000000000000000000, 0.0000000000000000000 ) ) ;
#107 = FACE_OUTER_BOUND ( 'NONE', #177, .T. ) ;
#108 = CARTESIAN_POINT ( 'NONE',  ( -37.50000000000000700, 37.49999999999999300, 0.0000000000000000000 ) ) ;
#109 = DIRECTION ( 'NONE',  ( -0.0000000000000000000, 1.000000000000000000, -0.0000000000000000000 ) ) ;
#110 = EDGE_CURVE ( 'NONE', #119, #144, #157, .T. ) ;
#111 = PERSON_AND_ORGANIZATION ( #45, #143 ) ;
#112 = LINE ( 'NONE', #87, #68 ) ;
#113 = LOCAL_TIME ( 14, 52, 3.000000000000000000, #156 ) ;
#114 = VERTEX_POINT ( 'NONE', #1 ) ;
#115 = ORIENTED_EDGE ( 'NONE', *, *, #187, .F. ) ;
#116 = DIRECTION ( 'NONE',  ( 1.000000000000000000, 9.251858538542970300E-017, -0.0000000000000000000 ) ) ;
#117 = DIRECTION ( 'NONE',  ( -0.0000000000000000000, 1.000000000000000000, -0.0000000000000000000 ) ) ;
#118 = LINE ( 'NONE', #100, #210 ) ;
#119 = VERTEX_POINT ( 'NONE', #16 ) ;
#120 = CARTESIAN_POINT ( 'NONE',  ( 37.50000000000000000, 37.49999999999999300, 3.000000000000000000 ) ) ;
#121 = CARTESIAN_POINT ( 'NONE',  ( 37.50000000000000000, 37.49999999999999300, 0.0000000000000000000 ) ) ;
#122 =( LENGTH_UNIT ( ) NAMED_UNIT ( * ) SI_UNIT ( .MILLI., .METRE. ) );
#123 = APPROVAL_PERSON_ORGANIZATION ( #128, #209, #27 ) ;
#124 = ORIENTED_EDGE ( 'NONE', *, *, #208, .T. ) ;
#125 = CALENDAR_DATE ( 2017, 31, 1 ) ;
#126 = FACE_OUTER_BOUND ( 'NONE', #214, .T. ) ;
#127 = CC_DESIGN_DATE_AND_TIME_ASSIGNMENT ( #169, #206, ( #30 ) ) ;
#128 = PERSON_AND_ORGANIZATION ( #45, #143 ) ;
#129 = ORIENTED_EDGE ( 'NONE', *, *, #235, .F. ) ;
#130 = VECTOR ( 'NONE', #199, 1000.000000000000000 ) ;
#131 = EDGE_LOOP ( 'NONE', ( #149, #65, #78, #37 ) ) ;
#132 = CARTESIAN_POINT ( 'NONE',  ( -37.50000000000000700, 37.49999999999999300, 3.000000000000000000 ) ) ;
#133 = VECTOR ( 'NONE', #202, 1000.000000000000000 ) ;
#134 = CLOSED_SHELL ( 'NONE', ( #53, #74, #56, #174, #104, #17 ) ) ;
#135 = CARTESIAN_POINT ( 'NONE',  ( -37.50000000000000000, -37.50000000000000700, 3.000000000000000000 ) ) ;
#136 = CC_DESIGN_DATE_AND_TIME_ASSIGNMENT ( #181, #61, ( #223 ) ) ;
#137 = PLANE ( 'NONE',  #3 ) ;
#138 = LOCAL_TIME ( 14, 52, 3.000000000000000000, #148 ) ;
#139 = LINE ( 'NONE', #120, #13 ) ;
#140 = CARTESIAN_POINT ( 'NONE',  ( 37.50000000000000000, -37.49999999999999300, 0.0000000000000000000 ) ) ;
#141 = APPLICATION_CONTEXT ( 'configuration controlled 3d designs of mechanical parts and assemblies' ) ;
#142 = CARTESIAN_POINT ( 'NONE',  ( -37.50000000000000700, 37.49999999999999300, 3.000000000000000000 ) ) ;
#143 = ORGANIZATION ( 'UNSPECIFIED', 'UNSPECIFIED', '' ) ;
#144 = VERTEX_POINT ( 'NONE', #140 ) ;
#145 = PERSON_AND_ORGANIZATION_ROLE ( 'design_owner' ) ;
#146 = DIRECTION ( 'NONE',  ( 1.000000000000000000, 0.0000000000000000000, 0.0000000000000000000 ) ) ;
#147 = CC_DESIGN_APPROVAL ( #28, ( #223 ) ) ;
#148 = COORDINATED_UNIVERSAL_TIME_OFFSET ( 5, 0, .BEHIND. ) ;
#149 = ORIENTED_EDGE ( 'NONE', *, *, #215, .T. ) ;
#150 = APPROVAL ( #94, 'UNSPECIFIED' ) ;
#151 = DIRECTION ( 'NONE',  ( -1.850371707708594100E-016, 1.000000000000000000, 0.0000000000000000000 ) ) ;
#152 = PLANE ( 'NONE',  #160 ) ;
#153 = DIRECTION ( 'NONE',  ( 0.0000000000000000000, 0.0000000000000000000, -1.000000000000000000 ) ) ;
#154 = CARTESIAN_POINT ( 'NONE',  ( -37.50000000000000700, 37.49999999999999300, 3.000000000000000000 ) ) ;
#155 = DIRECTION ( 'NONE',  ( 0.0000000000000000000, 0.0000000000000000000, 1.000000000000000000 ) ) ;
#156 = COORDINATED_UNIVERSAL_TIME_OFFSET ( 5, 0, .BEHIND. ) ;
#157 = LINE ( 'NONE', #55, #93 ) ;
#158 = VERTEX_POINT ( 'NONE', #154 ) ;
#159 = PLANE ( 'NONE',  #232 ) ;
#160 = AXIS2_PLACEMENT_3D ( 'NONE', #175, #153, #52 ) ;
#161 = PERSON_AND_ORGANIZATION_ROLE ( 'creator' ) ;
#162 = CALENDAR_DATE ( 2017, 31, 1 ) ;
#163 = ORIENTED_EDGE ( 'NONE', *, *, #235, .T. ) ;
#164 = EDGE_CURVE ( 'NONE', #99, #158, #10, .T. ) ;
#165 = CALENDAR_DATE ( 2017, 31, 1 ) ;
#166 = VERTEX_POINT ( 'NONE', #121 ) ;
#167 = PERSON_AND_ORGANIZATION ( #45, #143 ) ;
#168 = EDGE_CURVE ( 'NONE', #201, #119, #38, .T. ) ;
#169 = DATE_AND_TIME ( #125, #62 ) ;
#170 = ORIENTED_EDGE ( 'NONE', *, *, #171, .T. ) ;
#171 = EDGE_CURVE ( 'NONE', #158, #114, #189, .T. ) ;
#172 = CARTESIAN_POINT ( 'NONE',  ( 37.50000000000000000, 37.49999999999999300, 3.000000000000000000 ) ) ;
#173 = ADVANCED_BREP_SHAPE_REPRESENTATION ( 'Web Model 68379', ( #193, #72 ), #46 ) ;
#174 = ADVANCED_FACE ( 'NONE', ( #54 ), #159, .F. ) ;
#175 = CARTESIAN_POINT ( 'NONE',  ( -37.50000000000000000, -37.50000000000000700, 0.0000000000000000000 ) ) ;
#176 = CALENDAR_DATE ( 2017, 31, 1 ) ;
#177 = EDGE_LOOP ( 'NONE', ( #163, #230, #115, #34 ) ) ;
#178 =( NAMED_UNIT ( * ) PLANE_ANGLE_UNIT ( ) SI_UNIT ( $, .RADIAN. ) );
#179 = CC_DESIGN_SECURITY_CLASSIFICATION ( #30, ( #197 ) ) ;
#180 = DIRECTION ( 'NONE',  ( -0.0000000000000000000, -0.0000000000000000000, -1.000000000000000000 ) ) ;
#181 = DATE_AND_TIME ( #162, #42 ) ;
#182 = APPROVAL_STATUS ( 'not_yet_approved' ) ;
#183 = ORIENTED_EDGE ( 'NONE', *, *, #110, .F. ) ;
#184 = CARTESIAN_POINT ( 'NONE',  ( 37.50000000000000000, 37.49999999999999300, 3.000000000000000000 ) ) ;
#185 = LINE ( 'NONE', #8, #195 ) ;
#186 = ORIENTED_EDGE ( 'NONE', *, *, #215, .F. ) ;
#187 = EDGE_CURVE ( 'NONE', #119, #99, #139, .T. ) ;
#188 = AXIS2_PLACEMENT_3D ( 'NONE', #132, #116, #2 ) ;
#189 = LINE ( 'NONE', #142, #234 ) ;
#190 = APPROVAL_PERSON_ORGANIZATION ( #204, #150, #203 ) ;
#191 = CC_DESIGN_APPROVAL ( #150, ( #30 ) ) ;
#192 = LINE ( 'NONE', #217, #130 ) ;
#193 = MANIFOLD_SOLID_BREP ( 'Extrude1', #134 ) ;
#194 = DIRECTION ( 'NONE',  ( -1.000000000000000000, -1.850371707708594100E-016, 0.0000000000000000000 ) ) ;
#195 = VECTOR ( 'NONE', #218, 1000.000000000000000 ) ;
#196 = DIRECTION ( 'NONE',  ( -1.000000000000000000, 0.0000000000000000000, -0.0000000000000000000 ) ) ;
#197 = PRODUCT_DEFINITION_FORMATION_WITH_SPECIFIED_SOURCE ( 'ANY', '', #64, .NOT_KNOWN. ) ;
#198 = DIRECTION ( 'NONE',  ( 1.000000000000000000, 1.850371707708594300E-016, -0.0000000000000000000 ) ) ;
#199 = DIRECTION ( 'NONE',  ( -0.0000000000000000000, -0.0000000000000000000, -1.000000000000000000 ) ) ;
#200 = EDGE_CURVE ( 'NONE', #158, #201, #185, .T. ) ;
#201 = VERTEX_POINT ( 'NONE', #40 ) ;
#202 = DIRECTION ( 'NONE',  ( -1.000000000000000000, 0.0000000000000000000, 0.0000000000000000000 ) ) ;
#203 = APPROVAL_ROLE ( '' ) ;
#204 = PERSON_AND_ORGANIZATION ( #45, #143 ) ;
#205 = VECTOR ( 'NONE', #90, 1000.000000000000000 ) ;
#206 = DATE_TIME_ROLE ( 'classification_date' ) ;
#207 = APPROVAL_PERSON_ORGANIZATION ( #50, #28, #79 ) ;
#208 = EDGE_CURVE ( 'NONE', #114, #24, #4, .T. ) ;
#209 = APPROVAL ( #182, 'UNSPECIFIED' ) ;
#210 = VECTOR ( 'NONE', #216, 1000.000000000000000 ) ;
#211 = PLANE ( 'NONE',  #224 ) ;
#212 = CARTESIAN_POINT ( 'NONE',  ( -37.50000000000000000, -37.50000000000000700, 0.0000000000000000000 ) ) ;
#213 = CALENDAR_DATE ( 2017, 31, 1 ) ;
#214 = EDGE_LOOP ( 'NONE', ( #219, #183, #29, #43 ) ) ;
#215 = EDGE_CURVE ( 'NONE', #166, #114, #77, .T. ) ;
#216 = DIRECTION ( 'NONE',  ( -0.0000000000000000000, -0.0000000000000000000, -1.000000000000000000 ) ) ;
#217 = CARTESIAN_POINT ( 'NONE',  ( 37.50000000000000000, 37.49999999999999300, 3.000000000000000000 ) ) ;
#218 = DIRECTION ( 'NONE',  ( 9.251858538542971600E-017, -1.000000000000000000, 0.0000000000000000000 ) ) ;
#219 = ORIENTED_EDGE ( 'NONE', *, *, #9, .T. ) ;
#220 = APPLICATION_PROTOCOL_DEFINITION ( 'international standard', 'config_control_design', 1994, #59 ) ;
#221 = DIRECTION ( 'NONE',  ( 0.0000000000000000000, -1.000000000000000000, 0.0000000000000000000 ) ) ;
#222 = DATE_AND_TIME ( #213, #229 ) ;
#223 = PRODUCT_DEFINITION ( 'UNKNOWN', '', #197, #86 ) ;
#224 = AXIS2_PLACEMENT_3D ( 'NONE', #73, #151, #194 ) ;
#225 = PERSON_AND_ORGANIZATION_ROLE ( 'creator' ) ;
#226 = VECTOR ( 'NONE', #91, 1000.000000000000000 ) ;
#227 = ORIENTED_EDGE ( 'NONE', *, *, #168, .T. ) ;
#228 = CC_DESIGN_PERSON_AND_ORGANIZATION_ASSIGNMENT ( #233, #225, ( #197 ) ) ;
#229 = LOCAL_TIME ( 14, 52, 3.000000000000000000, #18 ) ;
#230 = ORIENTED_EDGE ( 'NONE', *, *, #231, .F. ) ;
#231 = EDGE_CURVE ( 'NONE', #99, #166, #192, .T. ) ;
#232 = AXIS2_PLACEMENT_3D ( 'NONE', #184, #221, #44 ) ;
#233 = PERSON_AND_ORGANIZATION ( #45, #143 ) ;
#234 = VECTOR ( 'NONE', #180, 1000.000000000000000 ) ;
#235 = EDGE_CURVE ( 'NONE', #144, #166, #92, .T. ) ;
#236 = ORIENTED_EDGE ( 'NONE', *, *, #200, .T. ) ;
#237 = PRODUCT_DEFINITION_SHAPE ( 'NONE', 'NONE',  #223 ) ;
ENDSEC;
END-ISO-10303-21;
