ISO-10303-21;
HEADER;
FILE_DESCRIPTION (( 'STEP AP214' ),
    '1' );
FILE_NAME ('4827-E0W.STEP',
    '2009-12-21T17:05:26',
    ( ' ' ),
    ( ' ' ),
    'SwSTEP 2.0',
    'SolidWorks 2009',
    '' );
FILE_SCHEMA (( 'AUTOMOTIVE_DESIGN' ));
ENDSEC;

DATA;
#1 = ORIENTED_EDGE ( 'NONE', *, *, #12, .F. ) ;
#2 = ORIENTED_EDGE ( 'NONE', *, *, #10, .T. ) ;
#3 = VERTEX_POINT ( 'NONE', #118 ) ;
#4 = EDGE_CURVE ( 'NONE', #46, #14, #137, .T. ) ;
#5 = VERTEX_POINT ( 'NONE', #125 ) ;
#6 = ORIENTED_EDGE ( 'NONE', *, *, #8, .T. ) ;
#7 = MANIFOLD_SOLID_BREP ( 'NONE', #108 ) ;
#8 = EDGE_CURVE ( 'NONE', #5, #3, #135, .T. ) ;
#9 = VERTEX_POINT ( 'NONE', #120 ) ;
#10 = EDGE_CURVE ( 'NONE', #21, #14, #149, .T. ) ;
#11 = ADVANCED_FACE ( 'NONE', ( #150 ), #157, .F. ) ;
#12 = EDGE_CURVE ( 'NONE', #15, #3, #159, .T. ) ;
#13 = ORIENTED_EDGE ( 'NONE', *, *, #4, .F. ) ;
#14 = VERTEX_POINT ( 'NONE', #173 ) ;
#15 = VERTEX_POINT ( 'NONE', #172 ) ;
#16 = ORIENTED_EDGE ( 'NONE', *, *, #18, .F. ) ;
#17 = ADVANCED_FACE ( 'NONE', ( #171 ), #189, .T. ) ;
#18 = EDGE_CURVE ( 'NONE', #21, #9, #179, .T. ) ;
#19 = EDGE_LOOP ( 'NONE', ( #22, #54, #53, #50 ) ) ;
#20 = EDGE_LOOP ( 'NONE', ( #16, #2, #13, #47 ) ) ;
#21 = VERTEX_POINT ( 'NONE', #194 ) ;
#22 = ORIENTED_EDGE ( 'NONE', *, *, #30, .F. ) ;
#23 = ORIENTED_EDGE ( 'NONE', *, *, #12, .T. ) ;
#24 = ORIENTED_EDGE ( 'NONE', *, *, #25, .T. ) ;
#25 = EDGE_CURVE ( 'NONE', #3, #26, #193, .T. ) ;
#26 = VERTEX_POINT ( 'NONE', #219 ) ;
#27 = ORIENTED_EDGE ( 'NONE', *, *, #29, .F. ) ;
#28 = VERTEX_POINT ( 'NONE', #218 ) ;
#29 = EDGE_CURVE ( 'NONE', #15, #28, #196, .T. ) ;
#30 = EDGE_CURVE ( 'NONE', #26, #28, #201, .T. ) ;
#31 = ORIENTED_EDGE ( 'NONE', *, *, #30, .T. ) ;
#32 = ADVANCED_FACE ( 'NONE', ( #225 ), #231, .T. ) ;
#33 = ORIENTED_EDGE ( 'NONE', *, *, #43, .T. ) ;
#34 = DIRECTION ( 'NONE',  ( 1.000000000000000000, 0.0000000000000000000, 0.0000000000000000000 ) ) ;
#35 = EDGE_LOOP ( 'NONE', ( #33, #36, #6, #1, #98, #101 ) ) ;
#36 = ORIENTED_EDGE ( 'NONE', *, *, #37, .T. ) ;
#37 = EDGE_CURVE ( 'NONE', #46, #5, #234, .T. ) ;
#38 = DIRECTION ( 'NONE',  ( -0.0000000000000000000, -0.0000000000000000000, 1.000000000000000000 ) ) ;
#39 = EDGE_LOOP ( 'NONE', ( #40, #41, #45, #96, #97, #95 ) ) ;
#40 = ORIENTED_EDGE ( 'NONE', *, *, #8, .F. ) ;
#41 = ORIENTED_EDGE ( 'NONE', *, *, #42, .T. ) ;
#42 = EDGE_CURVE ( 'NONE', #5, #21, #56, .T. ) ;
#43 = EDGE_CURVE ( 'NONE', #9, #46, #261, .T. ) ;
#44 = ADVANCED_FACE ( 'NONE', ( #267 ), #241, .T. ) ;
#45 = ORIENTED_EDGE ( 'NONE', *, *, #18, .T. ) ;
#46 = VERTEX_POINT ( 'NONE', #238 ) ;
#47 = ORIENTED_EDGE ( 'NONE', *, *, #43, .F. ) ;
#48 =( NAMED_UNIT ( * ) SI_UNIT ( $, .STERADIAN. ) SOLID_ANGLE_UNIT ( ) );
#49 =( NAMED_UNIT ( * ) SI_UNIT ( $, .STERADIAN. ) SOLID_ANGLE_UNIT ( ) );
#50 = ORIENTED_EDGE ( 'NONE', *, *, #29, .T. ) ;
#51 =( GEOMETRIC_REPRESENTATION_CONTEXT ( 3 ) GLOBAL_UNCERTAINTY_ASSIGNED_CONTEXT ( ( #60 ) ) GLOBAL_UNIT_ASSIGNED_CONTEXT ( ( #277, #252, #49 ) ) REPRESENTATION_CONTEXT ( 'NONE', 'WORKASPACE' ) );
#52 = DIRECTION ( 'NONE',  ( 1.000000000000000000, 0.0000000000000000000, 0.0000000000000000000 ) ) ;
#53 = ORIENTED_EDGE ( 'NONE', *, *, #99, .T. ) ;
#54 = ORIENTED_EDGE ( 'NONE', *, *, #58, .T. ) ;
#55 = CARTESIAN_POINT ( 'NONE',  ( 0.0000000000000000000, 0.0000000000000000000, -3.485206065683206700 ) ) ;
#56 = CIRCLE ( 'NONE', #59, 25.39999999999999900 ) ;
#57 =( GEOMETRIC_REPRESENTATION_CONTEXT ( 3 ) GLOBAL_UNCERTAINTY_ASSIGNED_CONTEXT ( ( #286 ) ) GLOBAL_UNIT_ASSIGNED_CONTEXT ( ( #298, #301, #287 ) ) REPRESENTATION_CONTEXT ( 'NONE', 'WORKASPACE' ) );
#58 = EDGE_CURVE ( 'NONE', #26, #100, #276, .T. ) ;
#59 = AXIS2_PLACEMENT_3D ( 'NONE', #55, #62, #52 ) ;
#60 = UNCERTAINTY_MEASURE_WITH_UNIT (LENGTH_MEASURE( 1.000000000000000100E-005 ), #277, 'distance_accuracy_value', 'NONE');
#61 = UNCERTAINTY_MEASURE_WITH_UNIT (LENGTH_MEASURE( 1.000000000000000100E-005 ), #318, 'distance_accuracy_value', 'NONE');
#62 = DIRECTION ( 'NONE',  ( -0.0000000000000000000, -0.0000000000000000000, 1.000000000000000000 ) ) ;
#63 =( GEOMETRIC_REPRESENTATION_CONTEXT ( 3 ) GLOBAL_UNCERTAINTY_ASSIGNED_CONTEXT ( ( #61 ) ) GLOBAL_UNIT_ASSIGNED_CONTEXT ( ( #318, #317, #48 ) ) REPRESENTATION_CONTEXT ( 'NONE', 'WORKASPACE' ) );
#64 = ADVANCED_FACE ( 'NONE', ( #263 ), #293, .T. ) ;
#65 =( NAMED_UNIT ( * ) SI_UNIT ( $, .STERADIAN. ) SOLID_ANGLE_UNIT ( ) );
#66 = SURFACE_STYLE_FILL_AREA ( #77 ) ;
#67 = PRESENTATION_LAYER_ASSIGNMENT (  '', '', ( #71 ) ) ;
#68 = FILL_AREA_STYLE_COLOUR ( '', #75 ) ;
#69 = PRESENTATION_STYLE_ASSIGNMENT (( #74 ) ) ;
#70 = UNCERTAINTY_MEASURE_WITH_UNIT (LENGTH_MEASURE( 1.000000000000000100E-005 ), #78, 'distance_accuracy_value', 'NONE');
#71 = STYLED_ITEM ( 'NONE', ( #69 ), #79 ) ;
#72 =( NAMED_UNIT ( * ) PLANE_ANGLE_UNIT ( ) SI_UNIT ( $, .RADIAN. ) );
#73 = SURFACE_SIDE_STYLE ('',( #66 ) ) ;
#74 = SURFACE_STYLE_USAGE ( .BOTH. , #73 ) ;
#75 = COLOUR_RGB ( '',0.7960784313725489700, 0.8235294117647058400, 0.9372549019607843100 ) ;
#76 = MECHANICAL_DESIGN_GEOMETRIC_PRESENTATION_REPRESENTATION (  '', ( #71 ), #80 ) ;
#77 = FILL_AREA_STYLE ('',( #68 ) ) ;
#78 =( LENGTH_UNIT ( ) NAMED_UNIT ( * ) SI_UNIT ( .MILLI., .METRE. ) );
#79 = ADVANCED_BREP_SHAPE_REPRESENTATION ( '4827-E0W', ( #7, #320 ), #63 ) ;
#80 =( GEOMETRIC_REPRESENTATION_CONTEXT ( 3 ) GLOBAL_UNCERTAINTY_ASSIGNED_CONTEXT ( ( #70 ) ) GLOBAL_UNIT_ASSIGNED_CONTEXT ( ( #78, #72, #65 ) ) REPRESENTATION_CONTEXT ( 'NONE', 'WORKASPACE' ) );
#81 = PRODUCT ( '4827-E0W', '4827-E0W', '', ( #83 ) ) ;
#82 = APPLICATION_CONTEXT ( 'automotive_design' ) ;
#83 = PRODUCT_CONTEXT ( 'NONE', #85, 'mechanical' ) ;
#84 = APPLICATION_PROTOCOL_DEFINITION ( 'draft international standard', 'automotive_design', 1998, #85 ) ;
#85 = APPLICATION_CONTEXT ( 'automotive_design' ) ;
#86 = PRODUCT_DEFINITION_FORMATION_WITH_SPECIFIED_SOURCE ( 'ANY', '', #81, .NOT_KNOWN. ) ;
#87 = PRODUCT_DEFINITION ( 'UNKNOWN', '', #86, #88 ) ;
#88 = PRODUCT_DEFINITION_CONTEXT ( 'detailed design', #82, 'design' ) ;
#89 = PRODUCT_RELATED_PRODUCT_CATEGORY ( 'part', '', ( #81 ) ) ;
#90 = APPLICATION_PROTOCOL_DEFINITION ( 'draft international standard', 'automotive_design', 1998, #82 ) ;
#91 = SHAPE_DEFINITION_REPRESENTATION ( #92, #79 ) ;
#92 = PRODUCT_DEFINITION_SHAPE ( 'NONE', 'NONE',  #87 ) ;
#93 = EDGE_LOOP ( 'NONE', ( #106, #105, #104, #103 ) ) ;
#94 = ADVANCED_FACE ( 'NONE', ( #300 ), #315, .F. ) ;
#95 = ORIENTED_EDGE ( 'NONE', *, *, #25, .F. ) ;
#96 = ORIENTED_EDGE ( 'NONE', *, *, #102, .T. ) ;
#97 = ORIENTED_EDGE ( 'NONE', *, *, #58, .F. ) ;
#98 = ORIENTED_EDGE ( 'NONE', *, *, #99, .F. ) ;
#99 = EDGE_CURVE ( 'NONE', #100, #15, #314, .T. ) ;
#100 = VERTEX_POINT ( 'NONE', #305 ) ;
#101 = ORIENTED_EDGE ( 'NONE', *, *, #102, .F. ) ;
#102 = EDGE_CURVE ( 'NONE', #9, #100, #309, .T. ) ;
#103 = ORIENTED_EDGE ( 'NONE', *, *, #4, .T. ) ;
#104 = ORIENTED_EDGE ( 'NONE', *, *, #37, .F. ) ;
#105 = ORIENTED_EDGE ( 'NONE', *, *, #42, .F. ) ;
#106 = ORIENTED_EDGE ( 'NONE', *, *, #10, .F. ) ;
#107 = EDGE_LOOP ( 'NONE', ( #23, #24, #31, #27 ) ) ;
#108 = CLOSED_SHELL ( 'NONE', ( #11, #44, #32, #17, #64, #94 ) ) ;
#109 =( GEOMETRIC_REPRESENTATION_CONTEXT ( 3 ) GLOBAL_UNCERTAINTY_ASSIGNED_CONTEXT ( ( #122 ) ) GLOBAL_UNIT_ASSIGNED_CONTEXT ( ( #127, #115, #123 ) ) REPRESENTATION_CONTEXT ( 'NONE', 'WORKASPACE' ) );
#110 = MECHANICAL_DESIGN_GEOMETRIC_PRESENTATION_REPRESENTATION (  '', ( #112 ), #119 ) ;
#111 = PRESENTATION_LAYER_ASSIGNMENT (  '', '', ( #112 ) ) ;
#112 = STYLED_ITEM ( 'NONE', ( #151 ), #7 ) ;
#113 = COLOUR_RGB ( '',0.7960784313725489700, 0.8235294117647058400, 0.9372549019607843100 ) ;
#114 = DIRECTION ( 'NONE',  ( 0.0000000000000000000, 0.0000000000000000000, -1.000000000000000000 ) ) ;
#115 =( NAMED_UNIT ( * ) PLANE_ANGLE_UNIT ( ) SI_UNIT ( $, .RADIAN. ) );
#116 =( NAMED_UNIT ( * ) SI_UNIT ( $, .STERADIAN. ) SOLID_ANGLE_UNIT ( ) );
#117 = FILL_AREA_STYLE ('',( #124 ) ) ;
#118 = CARTESIAN_POINT ( 'NONE',  ( -25.39999999999999900, 3.110500138708838200E-015, -0.5201417099642610100 ) ) ;
#119 =( GEOMETRIC_REPRESENTATION_CONTEXT ( 3 ) GLOBAL_UNCERTAINTY_ASSIGNED_CONTEXT ( ( #126 ) ) GLOBAL_UNIT_ASSIGNED_CONTEXT ( ( #131, #121, #116 ) ) REPRESENTATION_CONTEXT ( 'NONE', 'WORKASPACE' ) );
#120 = CARTESIAN_POINT ( 'NONE',  ( 25.39999999999999900, 0.0000000000000000000, -3.485206065683206700 ) ) ;
#121 =( NAMED_UNIT ( * ) PLANE_ANGLE_UNIT ( ) SI_UNIT ( $, .RADIAN. ) );
#122 = UNCERTAINTY_MEASURE_WITH_UNIT (LENGTH_MEASURE( 1.000000000000000100E-005 ), #127, 'distance_accuracy_value', 'NONE');
#123 =( NAMED_UNIT ( * ) SI_UNIT ( $, .STERADIAN. ) SOLID_ANGLE_UNIT ( ) );
#124 = FILL_AREA_STYLE_COLOUR ( '', #113 ) ;
#125 = CARTESIAN_POINT ( 'NONE',  ( -25.39999999999999900, 3.110500138708838200E-015, -3.485206065683206700 ) ) ;
#126 = UNCERTAINTY_MEASURE_WITH_UNIT (LENGTH_MEASURE( 1.000000000000000100E-005 ), #131, 'distance_accuracy_value', 'NONE');
#127 =( LENGTH_UNIT ( ) NAMED_UNIT ( * ) SI_UNIT ( .MILLI., .METRE. ) );
#128 = MECHANICAL_DESIGN_GEOMETRIC_PRESENTATION_REPRESENTATION (  '', ( #130 ), #109 ) ;
#129 = PRESENTATION_LAYER_ASSIGNMENT (  '', '', ( #130 ) ) ;
#130 = STYLED_ITEM ( 'NONE', ( #138 ), #11 ) ;
#131 =( LENGTH_UNIT ( ) NAMED_UNIT ( * ) SI_UNIT ( .MILLI., .METRE. ) );
#132 = DIRECTION ( 'NONE',  ( -0.0000000000000000000, -0.0000000000000000000, 1.000000000000000000 ) ) ;
#133 = VECTOR ( 'NONE', #132, 1000.000000000000000 ) ;
#134 = CARTESIAN_POINT ( 'NONE',  ( -25.39999999999999900, 3.110500138708838200E-015, 9.625309820524258000 ) ) ;
#135 = LINE ( 'NONE', #134, #133 ) ;
#136 = AXIS2_PLACEMENT_3D ( 'NONE', #156, #155, #114 ) ;
#137 = CIRCLE ( 'NONE', #136, 224.6699999999999900 ) ;
#138 = PRESENTATION_STYLE_ASSIGNMENT (( #139 ) ) ;
#139 = SURFACE_STYLE_USAGE ( .BOTH. , #140 ) ;
#140 = SURFACE_SIDE_STYLE ('',( #141 ) ) ;
#141 = SURFACE_STYLE_FILL_AREA ( #142 ) ;
#142 = FILL_AREA_STYLE ('',( #143 ) ) ;
#143 = FILL_AREA_STYLE_COLOUR ( '', #144 ) ;
#144 = COLOUR_RGB ( '',0.9568627450980391500, 0.9490196078431372100, 0.9607843137254902200 ) ;
#145 = DIRECTION ( 'NONE',  ( -1.224606353822377300E-016, -1.000000000000000000, 0.0000000000000000000 ) ) ;
#146 = DIRECTION ( 'NONE',  ( -1.000000000000000000, 1.224606353822377300E-016, 0.0000000000000000000 ) ) ;
#147 = CARTESIAN_POINT ( 'NONE',  ( 0.0000000000000000000, 0.0000000000000000000, -226.7147939343167600 ) ) ;
#148 = AXIS2_PLACEMENT_3D ( 'NONE', #147, #146, #145 ) ;
#149 = CIRCLE ( 'NONE', #148, 224.6699999999999900 ) ;
#150 = FACE_OUTER_BOUND ( 'NONE', #20, .T. ) ;
#151 = PRESENTATION_STYLE_ASSIGNMENT (( #152 ) ) ;
#152 = SURFACE_STYLE_USAGE ( .BOTH. , #153 ) ;
#153 = SURFACE_SIDE_STYLE ('',( #154 ) ) ;
#154 = SURFACE_STYLE_FILL_AREA ( #117 ) ;
#155 = DIRECTION ( 'NONE',  ( 1.000000000000000000, -0.0000000000000000000, 0.0000000000000000000 ) ) ;
#156 = CARTESIAN_POINT ( 'NONE',  ( 0.0000000000000000000, 0.0000000000000000000, -226.7147939343167600 ) ) ;
#157 = SPHERICAL_SURFACE ( 'NONE', #187, 224.6699999999999900 ) ;
#158 = CARTESIAN_POINT ( 'NONE',  ( 0.0000000000000000000, 0.0000000000000000000, -0.5201417099642610100 ) ) ;
#159 = CIRCLE ( 'NONE', #176, 25.39999999999999900 ) ;
#160 = UNCERTAINTY_MEASURE_WITH_UNIT (LENGTH_MEASURE( 1.000000000000000100E-005 ), #180, 'distance_accuracy_value', 'NONE');
#161 =( NAMED_UNIT ( * ) SI_UNIT ( $, .STERADIAN. ) SOLID_ANGLE_UNIT ( ) );
#162 = CARTESIAN_POINT ( 'NONE',  ( 0.0000000000000000000, 0.0000000000000000000, -3.485206065683206700 ) ) ;
#163 = AXIS2_PLACEMENT_3D ( 'NONE', #162, #38, #34 ) ;
#164 = DIRECTION ( 'NONE',  ( 0.0000000000000000000, 1.000000000000000000, 0.0000000000000000000 ) ) ;
#165 = SURFACE_STYLE_USAGE ( .BOTH. , #166 ) ;
#166 = SURFACE_SIDE_STYLE ('',( #167 ) ) ;
#167 = SURFACE_STYLE_FILL_AREA ( #168 ) ;
#168 = FILL_AREA_STYLE ('',( #169 ) ) ;
#169 = FILL_AREA_STYLE_COLOUR ( '', #170 ) ;
#170 = COLOUR_RGB ( '',0.9568627450980391500, 0.9490196078431372100, 0.9607843137254902200 ) ;
#171 = FACE_OUTER_BOUND ( 'NONE', #19, .T. ) ;
#172 = CARTESIAN_POINT ( 'NONE',  ( 0.0000000000000000000, 25.39999999999997700, -0.5201417099642653400 ) ) ;
#173 = CARTESIAN_POINT ( 'NONE',  ( 0.0000000000000000000, 1.375661547566367400E-014, -2.044793934316779800 ) ) ;
#174 = DIRECTION ( 'NONE',  ( 1.000000000000000000, 0.0000000000000000000, 0.0000000000000000000 ) ) ;
#175 = DIRECTION ( 'NONE',  ( -0.0000000000000000000, -0.0000000000000000000, 1.000000000000000000 ) ) ;
#176 = AXIS2_PLACEMENT_3D ( 'NONE', #158, #175, #174 ) ;
#177 = DIRECTION ( 'NONE',  ( -1.000000000000000000, 0.0000000000000000000, 0.0000000000000000000 ) ) ;
#178 = AXIS2_PLACEMENT_3D ( 'NONE', #188, #177, #164 ) ;
#179 = CIRCLE ( 'NONE', #163, 25.39999999999999900 ) ;
#180 =( LENGTH_UNIT ( ) NAMED_UNIT ( * ) SI_UNIT ( .MILLI., .METRE. ) );
#181 = MECHANICAL_DESIGN_GEOMETRIC_PRESENTATION_REPRESENTATION (  '', ( #183 ), #190 ) ;
#182 = PRESENTATION_LAYER_ASSIGNMENT (  '', '', ( #183 ) ) ;
#183 = STYLED_ITEM ( 'NONE', ( #184 ), #17 ) ;
#184 = PRESENTATION_STYLE_ASSIGNMENT (( #165 ) ) ;
#185 = DIRECTION ( 'NONE',  ( 0.0000000000000000000, 1.000000000000000000, 0.0000000000000000000 ) ) ;
#186 = DIRECTION ( 'NONE',  ( -1.000000000000000000, 0.0000000000000000000, 0.0000000000000000000 ) ) ;
#187 = AXIS2_PLACEMENT_3D ( 'NONE', #191, #186, #185 ) ;
#188 = CARTESIAN_POINT ( 'NONE',  ( 0.0000000000000000000, 0.0000000000000000000, -79.05479393431680500 ) ) ;
#189 = SPHERICAL_SURFACE ( 'NONE', #178, 82.54000000000000600 ) ;
#190 =( GEOMETRIC_REPRESENTATION_CONTEXT ( 3 ) GLOBAL_UNCERTAINTY_ASSIGNED_CONTEXT ( ( #160 ) ) GLOBAL_UNIT_ASSIGNED_CONTEXT ( ( #180, #192, #161 ) ) REPRESENTATION_CONTEXT ( 'NONE', 'WORKASPACE' ) );
#191 = CARTESIAN_POINT ( 'NONE',  ( 0.0000000000000000000, 0.0000000000000000000, -226.7147939343167600 ) ) ;
#192 =( NAMED_UNIT ( * ) PLANE_ANGLE_UNIT ( ) SI_UNIT ( $, .RADIAN. ) );
#193 = CIRCLE ( 'NONE', #195, 25.39999999999999900 ) ;
#194 = CARTESIAN_POINT ( 'NONE',  ( -3.110500138708837000E-015, -25.39999999999998800, -3.485206065683189400 ) ) ;
#195 = AXIS2_PLACEMENT_3D ( 'NONE', #210, #209, #208 ) ;
#196 = CIRCLE ( 'NONE', #205, 82.54000000000000600 ) ;
#197 =( NAMED_UNIT ( * ) PLANE_ANGLE_UNIT ( ) SI_UNIT ( $, .RADIAN. ) );
#198 = DIRECTION ( 'NONE',  ( -1.224606353822377300E-016, -1.000000000000000000, 0.0000000000000000000 ) ) ;
#199 = DIRECTION ( 'NONE',  ( -1.000000000000000000, 1.224606353822377300E-016, 0.0000000000000000000 ) ) ;
#200 = AXIS2_PLACEMENT_3D ( 'NONE', #206, #199, #198 ) ;
#201 = CIRCLE ( 'NONE', #200, 82.54000000000000600 ) ;
#202 =( GEOMETRIC_REPRESENTATION_CONTEXT ( 3 ) GLOBAL_UNCERTAINTY_ASSIGNED_CONTEXT ( ( #215 ) ) GLOBAL_UNIT_ASSIGNED_CONTEXT ( ( #207, #197, #216 ) ) REPRESENTATION_CONTEXT ( 'NONE', 'WORKASPACE' ) );
#203 = DIRECTION ( 'NONE',  ( 0.0000000000000000000, 0.0000000000000000000, -1.000000000000000000 ) ) ;
#204 = DIRECTION ( 'NONE',  ( 1.000000000000000000, 0.0000000000000000000, 0.0000000000000000000 ) ) ;
#205 = AXIS2_PLACEMENT_3D ( 'NONE', #217, #204, #203 ) ;
#206 = CARTESIAN_POINT ( 'NONE',  ( 0.0000000000000000000, 0.0000000000000000000, -79.05479393431680500 ) ) ;
#207 =( LENGTH_UNIT ( ) NAMED_UNIT ( * ) SI_UNIT ( .MILLI., .METRE. ) );
#208 = DIRECTION ( 'NONE',  ( 1.000000000000000000, 0.0000000000000000000, 0.0000000000000000000 ) ) ;
#209 = DIRECTION ( 'NONE',  ( -0.0000000000000000000, -0.0000000000000000000, 1.000000000000000000 ) ) ;
#210 = CARTESIAN_POINT ( 'NONE',  ( 0.0000000000000000000, 0.0000000000000000000, -0.5201417099642610100 ) ) ;
#211 = MECHANICAL_DESIGN_GEOMETRIC_PRESENTATION_REPRESENTATION (  '', ( #213 ), #202 ) ;
#212 = PRESENTATION_LAYER_ASSIGNMENT (  '', '', ( #213 ) ) ;
#213 = STYLED_ITEM ( 'NONE', ( #214 ), #32 ) ;
#214 = PRESENTATION_STYLE_ASSIGNMENT (( #220 ) ) ;
#215 = UNCERTAINTY_MEASURE_WITH_UNIT (LENGTH_MEASURE( 1.000000000000000100E-005 ), #207, 'distance_accuracy_value', 'NONE');
#216 =( NAMED_UNIT ( * ) SI_UNIT ( $, .STERADIAN. ) SOLID_ANGLE_UNIT ( ) );
#217 = CARTESIAN_POINT ( 'NONE',  ( 0.0000000000000000000, 0.0000000000000000000, -79.05479393431680500 ) ) ;
#218 = CARTESIAN_POINT ( 'NONE',  ( 0.0000000000000000000, 5.053950422224951400E-015, 3.485206065683199600 ) ) ;
#219 = CARTESIAN_POINT ( 'NONE',  ( -3.110500138708835400E-015, -25.39999999999997700, -0.5201417099642653400 ) ) ;
#220 = SURFACE_STYLE_USAGE ( .BOTH. , #221 ) ;
#221 = SURFACE_SIDE_STYLE ('',( #222 ) ) ;
#222 = SURFACE_STYLE_FILL_AREA ( #223 ) ;
#223 = FILL_AREA_STYLE ('',( #226 ) ) ;
#224 = COLOUR_RGB ( '',0.9568627450980391500, 0.9490196078431372100, 0.9607843137254902200 ) ;
#225 = FACE_OUTER_BOUND ( 'NONE', #107, .T. ) ;
#226 = FILL_AREA_STYLE_COLOUR ( '', #224 ) ;
#227 = DIRECTION ( 'NONE',  ( 0.0000000000000000000, 1.000000000000000000, 0.0000000000000000000 ) ) ;
#228 = DIRECTION ( 'NONE',  ( -1.000000000000000000, 0.0000000000000000000, 0.0000000000000000000 ) ) ;
#229 = CARTESIAN_POINT ( 'NONE',  ( 0.0000000000000000000, 0.0000000000000000000, -79.05479393431680500 ) ) ;
#230 = AXIS2_PLACEMENT_3D ( 'NONE', #229, #228, #227 ) ;
#231 = SPHERICAL_SURFACE ( 'NONE', #230, 82.54000000000000600 ) ;
#232 = CARTESIAN_POINT ( 'NONE',  ( 0.0000000000000000000, 0.0000000000000000000, -3.485206065683206700 ) ) ;
#233 = AXIS2_PLACEMENT_3D ( 'NONE', #232, #236, #235 ) ;
#234 = CIRCLE ( 'NONE', #233, 25.39999999999999900 ) ;
#235 = DIRECTION ( 'NONE',  ( 1.000000000000000000, 0.0000000000000000000, 0.0000000000000000000 ) ) ;
#236 = DIRECTION ( 'NONE',  ( -0.0000000000000000000, -0.0000000000000000000, 1.000000000000000000 ) ) ;
#237 = AXIS2_PLACEMENT_3D ( 'NONE', #240, #253, #264 ) ;
#238 = CARTESIAN_POINT ( 'NONE',  ( 0.0000000000000000000, 25.39999999999998800, -3.485206065683189400 ) ) ;
#239 = FILL_AREA_STYLE ('',( #256 ) ) ;
#240 = CARTESIAN_POINT ( 'NONE',  ( 0.0000000000000000000, 0.0000000000000000000, 9.625309820524258000 ) ) ;
#241 = CYLINDRICAL_SURFACE ( 'NONE', #237, 25.39999999999999900 ) ;
#242 = SURFACE_STYLE_USAGE ( .BOTH. , #243 ) ;
#243 = SURFACE_SIDE_STYLE ('',( #244 ) ) ;
#244 = SURFACE_STYLE_FILL_AREA ( #245 ) ;
#245 = FILL_AREA_STYLE ('',( #262 ) ) ;
#246 = COLOUR_RGB ( '',0.9568627450980391500, 0.9490196078431372100, 0.9607843137254902200 ) ;
#247 = DIRECTION ( 'NONE',  ( -0.0000000000000000000, -0.0000000000000000000, 1.000000000000000000 ) ) ;
#248 = SURFACE_STYLE_USAGE ( .BOTH. , #281 ) ;
#249 = PRESENTATION_STYLE_ASSIGNMENT (( #248 ) ) ;
#250 = MECHANICAL_DESIGN_GEOMETRIC_PRESENTATION_REPRESENTATION (  '', ( #280 ), #254 ) ;
#251 = PRESENTATION_LAYER_ASSIGNMENT (  '', '', ( #280 ) ) ;
#252 =( NAMED_UNIT ( * ) PLANE_ANGLE_UNIT ( ) SI_UNIT ( $, .RADIAN. ) );
#253 = DIRECTION ( 'NONE',  ( -0.0000000000000000000, -0.0000000000000000000, 1.000000000000000000 ) ) ;
#254 =( GEOMETRIC_REPRESENTATION_CONTEXT ( 3 ) GLOBAL_UNCERTAINTY_ASSIGNED_CONTEXT ( ( #279 ) ) GLOBAL_UNIT_ASSIGNED_CONTEXT ( ( #278, #255, #266 ) ) REPRESENTATION_CONTEXT ( 'NONE', 'WORKASPACE' ) );
#255 =( NAMED_UNIT ( * ) PLANE_ANGLE_UNIT ( ) SI_UNIT ( $, .RADIAN. ) );
#256 = FILL_AREA_STYLE_COLOUR ( '', #271 ) ;
#257 = MECHANICAL_DESIGN_GEOMETRIC_PRESENTATION_REPRESENTATION (  '', ( #259 ), #51 ) ;
#258 = PRESENTATION_LAYER_ASSIGNMENT (  '', '', ( #259 ) ) ;
#259 = STYLED_ITEM ( 'NONE', ( #260 ), #64 ) ;
#260 = PRESENTATION_STYLE_ASSIGNMENT (( #242 ) ) ;
#261 = CIRCLE ( 'NONE', #270, 25.39999999999999900 ) ;
#262 = FILL_AREA_STYLE_COLOUR ( '', #246 ) ;
#263 = FACE_OUTER_BOUND ( 'NONE', #39, .T. ) ;
#264 = DIRECTION ( 'NONE',  ( 1.000000000000000000, 0.0000000000000000000, 0.0000000000000000000 ) ) ;
#265 = SURFACE_STYLE_FILL_AREA ( #239 ) ;
#266 =( NAMED_UNIT ( * ) SI_UNIT ( $, .STERADIAN. ) SOLID_ANGLE_UNIT ( ) );
#267 = FACE_OUTER_BOUND ( 'NONE', #35, .T. ) ;
#268 = CARTESIAN_POINT ( 'NONE',  ( 0.0000000000000000000, 0.0000000000000000000, -3.485206065683206700 ) ) ;
#269 = DIRECTION ( 'NONE',  ( 1.000000000000000000, 0.0000000000000000000, 0.0000000000000000000 ) ) ;
#270 = AXIS2_PLACEMENT_3D ( 'NONE', #268, #247, #269 ) ;
#271 = COLOUR_RGB ( '',0.9568627450980391500, 0.9490196078431372100, 0.9607843137254902200 ) ;
#272 = DIRECTION ( 'NONE',  ( 1.000000000000000000, 0.0000000000000000000, 0.0000000000000000000 ) ) ;
#273 = DIRECTION ( 'NONE',  ( -0.0000000000000000000, -0.0000000000000000000, 1.000000000000000000 ) ) ;
#274 = CARTESIAN_POINT ( 'NONE',  ( 0.0000000000000000000, 0.0000000000000000000, -0.5201417099642610100 ) ) ;
#275 = AXIS2_PLACEMENT_3D ( 'NONE', #274, #273, #272 ) ;
#276 = CIRCLE ( 'NONE', #275, 25.39999999999999900 ) ;
#277 =( LENGTH_UNIT ( ) NAMED_UNIT ( * ) SI_UNIT ( .MILLI., .METRE. ) );
#278 =( LENGTH_UNIT ( ) NAMED_UNIT ( * ) SI_UNIT ( .MILLI., .METRE. ) );
#279 = UNCERTAINTY_MEASURE_WITH_UNIT (LENGTH_MEASURE( 1.000000000000000100E-005 ), #278, 'distance_accuracy_value', 'NONE');
#280 = STYLED_ITEM ( 'NONE', ( #249 ), #44 ) ;
#281 = SURFACE_SIDE_STYLE ('',( #265 ) ) ;
#282 = SURFACE_STYLE_USAGE ( .BOTH. , #283 ) ;
#283 = SURFACE_SIDE_STYLE ('',( #289 ) ) ;
#284 = DIRECTION ( 'NONE',  ( 1.000000000000000000, 0.0000000000000000000, 0.0000000000000000000 ) ) ;
#285 = COLOUR_RGB ( '',0.9568627450980391500, 0.9490196078431372100, 0.9607843137254902200 ) ;
#286 = UNCERTAINTY_MEASURE_WITH_UNIT (LENGTH_MEASURE( 1.000000000000000100E-005 ), #298, 'distance_accuracy_value', 'NONE');
#287 =( NAMED_UNIT ( * ) SI_UNIT ( $, .STERADIAN. ) SOLID_ANGLE_UNIT ( ) );
#288 = AXIS2_PLACEMENT_3D ( 'NONE', #297, #299, #284 ) ;
#289 = SURFACE_STYLE_FILL_AREA ( #290 ) ;
#290 = FILL_AREA_STYLE ('',( #296 ) ) ;
#291 = MECHANICAL_DESIGN_GEOMETRIC_PRESENTATION_REPRESENTATION (  '', ( #294 ), #57 ) ;
#292 = PRESENTATION_LAYER_ASSIGNMENT (  '', '', ( #294 ) ) ;
#293 = CYLINDRICAL_SURFACE ( 'NONE', #288, 25.39999999999999900 ) ;
#294 = STYLED_ITEM ( 'NONE', ( #295 ), #94 ) ;
#295 = PRESENTATION_STYLE_ASSIGNMENT (( #282 ) ) ;
#296 = FILL_AREA_STYLE_COLOUR ( '', #285 ) ;
#297 = CARTESIAN_POINT ( 'NONE',  ( 0.0000000000000000000, 0.0000000000000000000, 9.625309820524258000 ) ) ;
#298 =( LENGTH_UNIT ( ) NAMED_UNIT ( * ) SI_UNIT ( .MILLI., .METRE. ) );
#299 = DIRECTION ( 'NONE',  ( -0.0000000000000000000, -0.0000000000000000000, 1.000000000000000000 ) ) ;
#300 = FACE_OUTER_BOUND ( 'NONE', #93, .T. ) ;
#301 =( NAMED_UNIT ( * ) PLANE_ANGLE_UNIT ( ) SI_UNIT ( $, .RADIAN. ) );
#302 = CARTESIAN_POINT ( 'NONE',  ( 0.0000000000000000000, 0.0000000000000000000, -226.7147939343167600 ) ) ;
#303 = DIRECTION ( 'NONE',  ( 0.0000000000000000000, 1.000000000000000000, 0.0000000000000000000 ) ) ;
#304 = AXIS2_PLACEMENT_3D ( 'NONE', #302, #316, #303 ) ;
#305 = CARTESIAN_POINT ( 'NONE',  ( 25.39999999999999900, 0.0000000000000000000, -0.5201417099642610100 ) ) ;
#306 = DIRECTION ( 'NONE',  ( -0.0000000000000000000, -0.0000000000000000000, 1.000000000000000000 ) ) ;
#307 = VECTOR ( 'NONE', #306, 1000.000000000000000 ) ;
#308 = CARTESIAN_POINT ( 'NONE',  ( 25.39999999999999900, 0.0000000000000000000, 9.625309820524258000 ) ) ;
#309 = LINE ( 'NONE', #308, #307 ) ;
#310 = DIRECTION ( 'NONE',  ( 1.000000000000000000, 0.0000000000000000000, 0.0000000000000000000 ) ) ;
#311 = DIRECTION ( 'NONE',  ( -0.0000000000000000000, -0.0000000000000000000, 1.000000000000000000 ) ) ;
#312 = CARTESIAN_POINT ( 'NONE',  ( 0.0000000000000000000, 0.0000000000000000000, -0.5201417099642610100 ) ) ;
#313 = AXIS2_PLACEMENT_3D ( 'NONE', #312, #311, #310 ) ;
#314 = CIRCLE ( 'NONE', #313, 25.39999999999999900 ) ;
#315 = SPHERICAL_SURFACE ( 'NONE', #304, 224.6699999999999900 ) ;
#316 = DIRECTION ( 'NONE',  ( -1.000000000000000000, 0.0000000000000000000, 0.0000000000000000000 ) ) ;
#317 =( NAMED_UNIT ( * ) PLANE_ANGLE_UNIT ( ) SI_UNIT ( $, .RADIAN. ) );
#318 =( LENGTH_UNIT ( ) NAMED_UNIT ( * ) SI_UNIT ( .MILLI., .METRE. ) );
#319 = DIRECTION ( 'NONE',  ( 1.000000000000000000, 0.0000000000000000000, 0.0000000000000000000 ) ) ;
#320 = AXIS2_PLACEMENT_3D ( 'NONE', #322, #321, #319 ) ;
#321 = DIRECTION ( 'NONE',  ( 0.0000000000000000000, 0.0000000000000000000, 1.000000000000000000 ) ) ;
#322 = CARTESIAN_POINT ( 'NONE',  ( 0.0000000000000000000, 0.0000000000000000000, 0.0000000000000000000 ) ) ;
ENDSEC;
END-ISO-10303-21;
