ISO-10303-21;
HEADER;
FILE_DESCRIPTION (( 'STEP AP203' ),
    '1' );
FILE_NAME ('Web Model 15424_15440.step',
    '2020-07-31T18:44:36',
    ( '' ),
    ( '' ),
    'SwSTEP 2.0',
    'SolidWorks 2018',
    '' );
FILE_SCHEMA (( 'CONFIG_CONTROL_DESIGN' ));
ENDSEC;

DATA;
#1 = CALENDAR_DATE ( 2020, 31, 7 ) ;
#2 = CIRCLE ( 'NONE', #104, 12.69999999999999929 ) ;
#3 = EDGE_LOOP ( 'NONE', ( #15, #105, #169, #173 ) ) ;
#4 = CARTESIAN_POINT ( 'NONE',  ( -12.69999999999999929, 0.0000000000000000000, 1.000000000000000000 ) ) ;
#5 = AXIS2_PLACEMENT_3D ( 'NONE', #40, #131, #36 ) ;
#6 = PLANE ( 'NONE',  #171 ) ;
#7 = CYLINDRICAL_SURFACE ( 'NONE', #156, 12.69999999999999929 ) ;
#8 = CIRCLE ( 'NONE', #79, 12.69999999999999929 ) ;
#9 = EDGE_LOOP ( 'NONE', ( #23, #82, #76, #93 ) ) ;
#10 = AXIS2_PLACEMENT_3D ( 'NONE', #146, #38, #74 ) ;
#11 = DATE_AND_TIME ( #30, #80 ) ;
#12 = APPROVAL_ROLE ( '' ) ;
#13 = FACE_OUTER_BOUND ( 'NONE', #9, .T. ) ;
#14 = DIRECTION ( 'NONE',  ( 0.0000000000000000000, 0.0000000000000000000, 1.000000000000000000 ) ) ;
#15 = ORIENTED_EDGE ( 'NONE', *, *, #88, .F. ) ;
#16 = COORDINATED_UNIVERSAL_TIME_OFFSET ( 5, 0, .BEHIND. ) ;
#17 = DIRECTION ( 'NONE',  ( -1.000000000000000000, 0.0000000000000000000, 0.0000000000000000000 ) ) ;
#18 = UNCERTAINTY_MEASURE_WITH_UNIT (LENGTH_MEASURE( 1.000000000000000082E-05 ), #130, 'distance_accuracy_value', 'NONE');
#19 = CARTESIAN_POINT ( 'NONE',  ( -12.69999999999999929, 0.0000000000000000000, 1.000000000000000000 ) ) ;
#20 = LOCAL_TIME ( 14, 44, 36.00000000000000000, #122 ) ;
#21 = MANIFOLD_SOLID_BREP ( 'Boss-Extrude1', #75 ) ;
#22 = APPROVAL ( #57, 'UNSPECIFIED' ) ;
#23 = ORIENTED_EDGE ( 'NONE', *, *, #61, .F. ) ;
#24 = APPROVAL_DATE_TIME ( #77, #22 ) ;
#25 = DATE_TIME_ROLE ( 'creation_date' ) ;
#26 = DIRECTION ( 'NONE',  ( 1.000000000000000000, 0.0000000000000000000, 0.0000000000000000000 ) ) ;
#27 = APPROVAL_ROLE ( '' ) ;
#28 = DIRECTION ( 'NONE',  ( -0.0000000000000000000, -0.0000000000000000000, -1.000000000000000000 ) ) ;
#29 = PLANE ( 'NONE',  #136 ) ;
#30 = CALENDAR_DATE ( 2020, 31, 7 ) ;
#31 =( GEOMETRIC_REPRESENTATION_CONTEXT ( 3 ) GLOBAL_UNCERTAINTY_ASSIGNED_CONTEXT ( ( #18 ) ) GLOBAL_UNIT_ASSIGNED_CONTEXT ( ( #130, #58, #72 ) ) REPRESENTATION_CONTEXT ( 'NONE', 'WORKASPACE' ) );
#32 = DATE_AND_TIME ( #155, #147 ) ;
#33 = EDGE_CURVE ( 'NONE', #138, #127, #126, .T. ) ;
#34 = DATE_AND_TIME ( #100, #56 ) ;
#35 = CC_DESIGN_PERSON_AND_ORGANIZATION_ASSIGNMENT ( #172, #121, ( #140 ) ) ;
#36 = DIRECTION ( 'NONE',  ( 1.000000000000000000, 0.0000000000000000000, 0.0000000000000000000 ) ) ;
#37 = DIRECTION ( 'NONE',  ( -0.0000000000000000000, -0.0000000000000000000, -1.000000000000000000 ) ) ;
#38 = DIRECTION ( 'NONE',  ( 0.0000000000000000000, 0.0000000000000000000, 1.000000000000000000 ) ) ;
#39 = CARTESIAN_POINT ( 'NONE',  ( 0.0000000000000000000, 0.0000000000000000000, 1.000000000000000000 ) ) ;
#40 = CARTESIAN_POINT ( 'NONE',  ( 0.0000000000000000000, 0.0000000000000000000, 0.0000000000000000000 ) ) ;
#41 = APPROVAL_DATE_TIME ( #119, #94 ) ;
#42 = CC_DESIGN_PERSON_AND_ORGANIZATION_ASSIGNMENT ( #86, #70, ( #120 ) ) ;
#43 = CC_DESIGN_APPROVAL ( #52, ( #90 ) ) ;
#44 = CC_DESIGN_PERSON_AND_ORGANIZATION_ASSIGNMENT ( #148, #81, ( #120 ) ) ;
#45 = CC_DESIGN_APPROVAL ( #94, ( #120 ) ) ;
#46 = MECHANICAL_CONTEXT ( 'NONE', #87, 'mechanical' ) ;
#47 = DIRECTION ( 'NONE',  ( 1.000000000000000000, 0.0000000000000000000, 0.0000000000000000000 ) ) ;
#48 = DIRECTION ( 'NONE',  ( 1.000000000000000000, 0.0000000000000000000, 0.0000000000000000000 ) ) ;
#49 = DIRECTION ( 'NONE',  ( 0.0000000000000000000, 0.0000000000000000000, 1.000000000000000000 ) ) ;
#50 = PRODUCT_RELATED_PRODUCT_CATEGORY ( 'detail', '', ( #140 ) ) ;
#51 = APPROVAL_PERSON_ORGANIZATION ( #62, #94, #144 ) ;
#52 = APPROVAL ( #66, 'UNSPECIFIED' ) ;
#53 = LINE ( 'NONE', #142, #163 ) ;
#54 = PERSON ( 'UNSPECIFIED', 'UNSPECIFIED', 'UNSPECIFIED', ('UNSPECIFIED'), ('UNSPECIFIED'), ('UNSPECIFIED') ) ;
#55 = EDGE_LOOP ( 'NONE', ( #116, #118 ) ) ;
#56 = LOCAL_TIME ( 14, 44, 36.00000000000000000, #91 ) ;
#57 = APPROVAL_STATUS ( 'not_yet_approved' ) ;
#58 =( NAMED_UNIT ( * ) PLANE_ANGLE_UNIT ( ) SI_UNIT ( $, .RADIAN. ) );
#59 = CARTESIAN_POINT ( 'NONE',  ( 0.0000000000000000000, 0.0000000000000000000, -1.000000000000000000 ) ) ;
#60 = CARTESIAN_POINT ( 'NONE',  ( 0.0000000000000000000, 0.0000000000000000000, 1.000000000000000000 ) ) ;
#61 = EDGE_CURVE ( 'NONE', #127, #138, #8, .T. ) ;
#62 = PERSON_AND_ORGANIZATION ( #54, #115 ) ;
#63 = CALENDAR_DATE ( 2020, 31, 7 ) ;
#64 = PERSON_AND_ORGANIZATION ( #54, #115 ) ;
#65 = PERSON_AND_ORGANIZATION ( #54, #115 ) ;
#66 = APPROVAL_STATUS ( 'not_yet_approved' ) ;
#67 = COORDINATED_UNIVERSAL_TIME_OFFSET ( 5, 0, .BEHIND. ) ;
#68 = DIRECTION ( 'NONE',  ( 0.0000000000000000000, 0.0000000000000000000, 1.000000000000000000 ) ) ;
#69 = SHAPE_DEFINITION_REPRESENTATION ( #125, #160 ) ;
#70 = PERSON_AND_ORGANIZATION_ROLE ( 'creator' ) ;
#71 = VERTEX_POINT ( 'NONE', #153 ) ;
#72 =( NAMED_UNIT ( * ) SI_UNIT ( $, .STERADIAN. ) SOLID_ANGLE_UNIT ( ) );
#73 = DIRECTION ( 'NONE',  ( -0.0000000000000000000, -0.0000000000000000000, -1.000000000000000000 ) ) ;
#74 = DIRECTION ( 'NONE',  ( 1.000000000000000000, 0.0000000000000000000, 0.0000000000000000000 ) ) ;
#75 = CLOSED_SHELL ( 'NONE', ( #112, #133, #135, #162 ) ) ;
#76 = ORIENTED_EDGE ( 'NONE', *, *, #102, .T. ) ;
#77 = DATE_AND_TIME ( #63, #20 ) ;
#78 = CC_DESIGN_PERSON_AND_ORGANIZATION_ASSIGNMENT ( #149, #83, ( #167 ) ) ;
#79 = AXIS2_PLACEMENT_3D ( 'NONE', #143, #68, #47 ) ;
#80 = LOCAL_TIME ( 14, 44, 36.00000000000000000, #67 ) ;
#81 = PERSON_AND_ORGANIZATION_ROLE ( 'design_supplier' ) ;
#82 = ORIENTED_EDGE ( 'NONE', *, *, #88, .T. ) ;
#83 = PERSON_AND_ORGANIZATION_ROLE ( 'classification_officer' ) ;
#84 = CC_DESIGN_DATE_AND_TIME_ASSIGNMENT ( #34, #25, ( #90 ) ) ;
#85 = PERSON_AND_ORGANIZATION_ROLE ( 'creator' ) ;
#86 = PERSON_AND_ORGANIZATION ( #54, #115 ) ;
#87 = APPLICATION_CONTEXT ( 'configuration controlled 3d designs of mechanical parts and assemblies' ) ;
#88 = EDGE_CURVE ( 'NONE', #127, #71, #53, .T. ) ;
#89 = ORIENTED_EDGE ( 'NONE', *, *, #150, .F. ) ;
#90 = PRODUCT_DEFINITION ( 'UNKNOWN', '', #120, #108 ) ;
#91 = COORDINATED_UNIVERSAL_TIME_OFFSET ( 5, 0, .BEHIND. ) ;
#92 = CYLINDRICAL_SURFACE ( 'NONE', #114, 12.69999999999999929 ) ;
#93 = ORIENTED_EDGE ( 'NONE', *, *, #111, .F. ) ;
#94 = APPROVAL ( #107, 'UNSPECIFIED' ) ;
#95 = APPLICATION_PROTOCOL_DEFINITION ( 'international standard', 'config_control_design', 1994, #87 ) ;
#96 = CARTESIAN_POINT ( 'NONE',  ( 0.0000000000000000000, 0.0000000000000000000, -1.000000000000000000 ) ) ;
#97 = CARTESIAN_POINT ( 'NONE',  ( 0.0000000000000000000, 0.0000000000000000000, 1.000000000000000000 ) ) ;
#98 = DIRECTION ( 'NONE',  ( 0.0000000000000000000, 0.0000000000000000000, 1.000000000000000000 ) ) ;
#99 = COORDINATED_UNIVERSAL_TIME_OFFSET ( 5, 0, .BEHIND. ) ;
#100 = CALENDAR_DATE ( 2020, 31, 7 ) ;
#101 = APPROVAL_PERSON_ORGANIZATION ( #65, #52, #27 ) ;
#102 = EDGE_CURVE ( 'NONE', #71, #154, #2, .T. ) ;
#103 = EDGE_LOOP ( 'NONE', ( #89, #158 ) ) ;
#104 = AXIS2_PLACEMENT_3D ( 'NONE', #59, #157, #48 ) ;
#105 = ORIENTED_EDGE ( 'NONE', *, *, #33, .F. ) ;
#106 = APPLICATION_PROTOCOL_DEFINITION ( 'international standard', 'config_control_design', 1994, #152 ) ;
#107 = APPROVAL_STATUS ( 'not_yet_approved' ) ;
#108 = DESIGN_CONTEXT ( 'detailed design', #152, 'design' ) ;
#109 = CARTESIAN_POINT ( 'NONE',  ( 12.69999999999999929, 1.555301434917138433E-15, 1.000000000000000000 ) ) ;
#110 = DIRECTION ( 'NONE',  ( 1.000000000000000000, 0.0000000000000000000, -0.0000000000000000000 ) ) ;
#111 = EDGE_CURVE ( 'NONE', #138, #154, #141, .T. ) ;
#112 = ADVANCED_FACE ( 'NONE', ( #13 ), #7, .T. ) ;
#113 = CC_DESIGN_PERSON_AND_ORGANIZATION_ASSIGNMENT ( #132, #85, ( #90 ) ) ;
#114 = AXIS2_PLACEMENT_3D ( 'NONE', #60, #37, #17 ) ;
#115 = ORGANIZATION ( 'UNSPECIFIED', 'UNSPECIFIED', '' ) ;
#116 = ORIENTED_EDGE ( 'NONE', *, *, #33, .T. ) ;
#117 = FACE_OUTER_BOUND ( 'NONE', #103, .T. ) ;
#118 = ORIENTED_EDGE ( 'NONE', *, *, #61, .T. ) ;
#119 = DATE_AND_TIME ( #1, #164 ) ;
#120 = PRODUCT_DEFINITION_FORMATION_WITH_SPECIFIED_SOURCE ( 'ANY', '', #140, .NOT_KNOWN. ) ;
#121 = PERSON_AND_ORGANIZATION_ROLE ( 'design_owner' ) ;
#122 = COORDINATED_UNIVERSAL_TIME_OFFSET ( 5, 0, .BEHIND. ) ;
#123 = SECURITY_CLASSIFICATION_LEVEL ( 'unclassified' ) ;
#124 = AXIS2_PLACEMENT_3D ( 'NONE', #139, #14, #26 ) ;
#125 = PRODUCT_DEFINITION_SHAPE ( 'NONE', 'NONE',  #90 ) ;
#126 = CIRCLE ( 'NONE', #124, 12.69999999999999929 ) ;
#127 = VERTEX_POINT ( 'NONE', #109 ) ;
#128 = DIRECTION ( 'NONE',  ( -0.0000000000000000000, -0.0000000000000000000, -1.000000000000000000 ) ) ;
#129 = CARTESIAN_POINT ( 'NONE',  ( -12.69999999999999929, 0.0000000000000000000, -1.000000000000000000 ) ) ;
#130 =( LENGTH_UNIT ( ) NAMED_UNIT ( * ) SI_UNIT ( .MILLI., .METRE. ) );
#131 = DIRECTION ( 'NONE',  ( 0.0000000000000000000, 0.0000000000000000000, 1.000000000000000000 ) ) ;
#132 = PERSON_AND_ORGANIZATION ( #54, #115 ) ;
#133 = ADVANCED_FACE ( 'NONE', ( #134 ), #92, .T. ) ;
#134 = FACE_OUTER_BOUND ( 'NONE', #3, .T. ) ;
#135 = ADVANCED_FACE ( 'NONE', ( #166 ), #6, .T. ) ;
#136 = AXIS2_PLACEMENT_3D ( 'NONE', #96, #49, #145 ) ;
#137 = CIRCLE ( 'NONE', #10, 12.69999999999999929 ) ;
#138 = VERTEX_POINT ( 'NONE', #4 ) ;
#139 = CARTESIAN_POINT ( 'NONE',  ( 0.0000000000000000000, 0.0000000000000000000, 1.000000000000000000 ) ) ;
#140 = PRODUCT ( 'Web Model 15424_15440', 'Web Model 15424_15440', '', ( #46 ) ) ;
#141 = LINE ( 'NONE', #19, #168 ) ;
#142 = CARTESIAN_POINT ( 'NONE',  ( 12.69999999999999929, 1.555301434917138433E-15, 1.000000000000000000 ) ) ;
#143 = CARTESIAN_POINT ( 'NONE',  ( 0.0000000000000000000, 0.0000000000000000000, 1.000000000000000000 ) ) ;
#144 = APPROVAL_ROLE ( '' ) ;
#145 = DIRECTION ( 'NONE',  ( 1.000000000000000000, 0.0000000000000000000, -0.0000000000000000000 ) ) ;
#146 = CARTESIAN_POINT ( 'NONE',  ( 0.0000000000000000000, 0.0000000000000000000, -1.000000000000000000 ) ) ;
#147 = LOCAL_TIME ( 14, 44, 36.00000000000000000, #16 ) ;
#148 = PERSON_AND_ORGANIZATION ( #54, #115 ) ;
#149 = PERSON_AND_ORGANIZATION ( #54, #115 ) ;
#150 = EDGE_CURVE ( 'NONE', #154, #71, #137, .T. ) ;
#151 = DATE_TIME_ROLE ( 'classification_date' ) ;
#152 = APPLICATION_CONTEXT ( 'configuration controlled 3d designs of mechanical parts and assemblies' ) ;
#153 = CARTESIAN_POINT ( 'NONE',  ( 12.69999999999999929, 1.555301434917138433E-15, -1.000000000000000000 ) ) ;
#154 = VERTEX_POINT ( 'NONE', #129 ) ;
#155 = CALENDAR_DATE ( 2020, 31, 7 ) ;
#156 = AXIS2_PLACEMENT_3D ( 'NONE', #97, #73, #159 ) ;
#157 = DIRECTION ( 'NONE',  ( 0.0000000000000000000, 0.0000000000000000000, 1.000000000000000000 ) ) ;
#158 = ORIENTED_EDGE ( 'NONE', *, *, #102, .F. ) ;
#159 = DIRECTION ( 'NONE',  ( -1.000000000000000000, 0.0000000000000000000, 0.0000000000000000000 ) ) ;
#160 = ADVANCED_BREP_SHAPE_REPRESENTATION ( 'Web Model 15424_15440', ( #21, #5 ), #31 ) ;
#161 = CC_DESIGN_SECURITY_CLASSIFICATION ( #167, ( #120 ) ) ;
#162 = ADVANCED_FACE ( 'NONE', ( #117 ), #29, .F. ) ;
#163 = VECTOR ( 'NONE', #28, 1000.000000000000000 ) ;
#164 = LOCAL_TIME ( 14, 44, 36.00000000000000000, #99 ) ;
#165 = APPROVAL_PERSON_ORGANIZATION ( #64, #22, #12 ) ;
#166 = FACE_OUTER_BOUND ( 'NONE', #55, .T. ) ;
#167 = SECURITY_CLASSIFICATION ( '', '', #123 ) ;
#168 = VECTOR ( 'NONE', #128, 1000.000000000000000 ) ;
#169 = ORIENTED_EDGE ( 'NONE', *, *, #111, .T. ) ;
#170 = CC_DESIGN_APPROVAL ( #22, ( #167 ) ) ;
#171 = AXIS2_PLACEMENT_3D ( 'NONE', #39, #98, #110 ) ;
#172 = PERSON_AND_ORGANIZATION ( #54, #115 ) ;
#173 = ORIENTED_EDGE ( 'NONE', *, *, #150, .T. ) ;
#174 = APPROVAL_DATE_TIME ( #11, #52 ) ;
#175 = CC_DESIGN_DATE_AND_TIME_ASSIGNMENT ( #32, #151, ( #167 ) ) ;
ENDSEC;
END-ISO-10303-21;
