ISO-10303-21;
HEADER;
FILE_DESCRIPTION (( 'STEP AP203' ),
    '1' );
FILE_NAME ('36935_36961.step',
    '2017-08-23T20:36:35',
    ( '' ),
    ( '' ),
    'SwSTEP 2.0',
    'SolidWorks 2016',
    '' );
FILE_SCHEMA (( 'CONFIG_CONTROL_DESIGN' ));
ENDSEC;

DATA;
#1 = PRODUCT_DEFINITION ( 'UNKNOWN', '', #98, #30 ) ;
#2 = DIRECTION ( 'NONE',  ( -0.0000000000000000000, -0.0000000000000000000, -1.000000000000000000 ) ) ;
#3 = CARTESIAN_POINT ( 'NONE',  ( -37.49999999999999300, 0.0000000000000000000, -1.500000000000000000 ) ) ;
#4 = CARTESIAN_POINT ( 'NONE',  ( -37.49999999999999300, 0.0000000000000000000, 1.500000000000000000 ) ) ;
#5 = AXIS2_PLACEMENT_3D ( 'NONE', #103, #47, #171 ) ;
#6 = PERSON_AND_ORGANIZATION ( #153, #141 ) ;
#7 = ORIENTED_EDGE ( 'NONE', *, *, #129, .T. ) ;
#8 = MECHANICAL_CONTEXT ( 'NONE', #119, 'mechanical' ) ;
#9 = VECTOR ( 'NONE', #19, 1000.000000000000000 ) ;
#10 = CC_DESIGN_APPROVAL ( #128, ( #1 ) ) ;
#11 = LOCAL_TIME ( 16, 36, 35.00000000000000000, #114 ) ;
#12 = APPROVAL_ROLE ( '' ) ;
#13 = PERSON_AND_ORGANIZATION ( #153, #141 ) ;
#14 = EDGE_LOOP ( 'NONE', ( #79, #65 ) ) ;
#15 = ADVANCED_FACE ( 'NONE', ( #96 ), #167, .T. ) ;
#16 = CALENDAR_DATE ( 2017, 23, 8 ) ;
#17 = CARTESIAN_POINT ( 'NONE',  ( 0.0000000000000000000, 0.0000000000000000000, 1.500000000000000000 ) ) ;
#18 = DIRECTION ( 'NONE',  ( 0.0000000000000000000, 0.0000000000000000000, 1.000000000000000000 ) ) ;
#19 = DIRECTION ( 'NONE',  ( -0.0000000000000000000, -0.0000000000000000000, -1.000000000000000000 ) ) ;
#20 = CARTESIAN_POINT ( 'NONE',  ( 0.0000000000000000000, 0.0000000000000000000, 1.500000000000000000 ) ) ;
#21 = PERSON_AND_ORGANIZATION_ROLE ( 'design_owner' ) ;
#22 = LOCAL_TIME ( 16, 36, 35.00000000000000000, #63 ) ;
#23 = ORIENTED_EDGE ( 'NONE', *, *, #92, .F. ) ;
#24 = PERSON_AND_ORGANIZATION_ROLE ( 'creator' ) ;
#25 = DATE_AND_TIME ( #16, #22 ) ;
#26 = AXIS2_PLACEMENT_3D ( 'NONE', #54, #71, #36 ) ;
#27 = PERSON_AND_ORGANIZATION_ROLE ( 'classification_officer' ) ;
#28 = CC_DESIGN_PERSON_AND_ORGANIZATION_ASSIGNMENT ( #13, #173, ( #98 ) ) ;
#29 = DATE_AND_TIME ( #58, #151 ) ;
#30 = DESIGN_CONTEXT ( 'detailed design', #143, 'design' ) ;
#31 = SHAPE_DEFINITION_REPRESENTATION ( #88, #125 ) ;
#32 = CC_DESIGN_PERSON_AND_ORGANIZATION_ASSIGNMENT ( #6, #24, ( #1 ) ) ;
#33 = DATE_AND_TIME ( #81, #137 ) ;
#34 = CARTESIAN_POINT ( 'NONE',  ( -37.49999999999999300, 0.0000000000000000000, 1.500000000000000000 ) ) ;
#35 = PRODUCT ( '36935_36961', '36935_36961', '', ( #8 ) ) ;
#36 = DIRECTION ( 'NONE',  ( 1.000000000000000000, 0.0000000000000000000, -0.0000000000000000000 ) ) ;
#37 = EDGE_LOOP ( 'NONE', ( #160, #91, #7, #64 ) ) ;
#38 = AXIS2_PLACEMENT_3D ( 'NONE', #84, #69, #55 ) ;
#39 = CLOSED_SHELL ( 'NONE', ( #150, #15, #174, #127 ) ) ;
#40 = APPROVAL_STATUS ( 'not_yet_approved' ) ;
#41 = CC_DESIGN_APPROVAL ( #76, ( #98 ) ) ;
#42 = ORIENTED_EDGE ( 'NONE', *, *, #51, .T. ) ;
#43 = CIRCLE ( 'NONE', #5, 37.49999999999999300 ) ;
#44 = CARTESIAN_POINT ( 'NONE',  ( 0.0000000000000000000, 0.0000000000000000000, 1.500000000000000000 ) ) ;
#45 = LOCAL_TIME ( 16, 36, 35.00000000000000000, #89 ) ;
#46 = AXIS2_PLACEMENT_3D ( 'NONE', #20, #140, #57 ) ;
#47 = DIRECTION ( 'NONE',  ( 0.0000000000000000000, 0.0000000000000000000, 1.000000000000000000 ) ) ;
#48 = APPROVAL_STATUS ( 'not_yet_approved' ) ;
#49 = VERTEX_POINT ( 'NONE', #131 ) ;
#50 =( NAMED_UNIT ( * ) SI_UNIT ( $, .STERADIAN. ) SOLID_ANGLE_UNIT ( ) );
#51 = EDGE_CURVE ( 'NONE', #49, #52, #126, .T. ) ;
#52 = VERTEX_POINT ( 'NONE', #4 ) ;
#53 = PERSON_AND_ORGANIZATION ( #153, #141 ) ;
#54 = CARTESIAN_POINT ( 'NONE',  ( 0.0000000000000000000, 0.0000000000000000000, -1.500000000000000000 ) ) ;
#55 = DIRECTION ( 'NONE',  ( 1.000000000000000000, 0.0000000000000000000, 0.0000000000000000000 ) ) ;
#56 = APPROVAL_DATE_TIME ( #116, #67 ) ;
#57 = DIRECTION ( 'NONE',  ( -1.000000000000000000, 0.0000000000000000000, 0.0000000000000000000 ) ) ;
#58 = CALENDAR_DATE ( 2017, 23, 8 ) ;
#59 = CC_DESIGN_PERSON_AND_ORGANIZATION_ASSIGNMENT ( #53, #21, ( #35 ) ) ;
#60 = APPROVAL_PERSON_ORGANIZATION ( #136, #128, #159 ) ;
#61 = APPLICATION_PROTOCOL_DEFINITION ( 'international standard', 'config_control_design', 1994, #143 ) ;
#62 = CIRCLE ( 'NONE', #172, 37.49999999999999300 ) ;
#63 = COORDINATED_UNIVERSAL_TIME_OFFSET ( 5, 0, .BEHIND. ) ;
#64 = ORIENTED_EDGE ( 'NONE', *, *, #99, .F. ) ;
#65 = ORIENTED_EDGE ( 'NONE', *, *, #129, .F. ) ;
#66 = VERTEX_POINT ( 'NONE', #3 ) ;
#67 = APPROVAL ( #40, 'UNSPECIFIED' ) ;
#68 = CARTESIAN_POINT ( 'NONE',  ( 0.0000000000000000000, 0.0000000000000000000, -1.500000000000000000 ) ) ;
#69 = DIRECTION ( 'NONE',  ( 0.0000000000000000000, 0.0000000000000000000, 1.000000000000000000 ) ) ;
#70 = DIRECTION ( 'NONE',  ( -0.0000000000000000000, -0.0000000000000000000, -1.000000000000000000 ) ) ;
#71 = DIRECTION ( 'NONE',  ( 0.0000000000000000000, 0.0000000000000000000, 1.000000000000000000 ) ) ;
#72 = PERSON_AND_ORGANIZATION ( #153, #141 ) ;
#73 = EDGE_LOOP ( 'NONE', ( #123, #23, #152, #113 ) ) ;
#74 = DATE_TIME_ROLE ( 'creation_date' ) ;
#75 = APPROVAL_STATUS ( 'not_yet_approved' ) ;
#76 = APPROVAL ( #48, 'UNSPECIFIED' ) ;
#77 = VECTOR ( 'NONE', #70, 1000.000000000000000 ) ;
#78 = PERSON_AND_ORGANIZATION ( #153, #141 ) ;
#79 = ORIENTED_EDGE ( 'NONE', *, *, #110, .F. ) ;
#80 = EDGE_CURVE ( 'NONE', #49, #105, #83, .T. ) ;
#81 = CALENDAR_DATE ( 2017, 23, 8 ) ;
#82 = CC_DESIGN_PERSON_AND_ORGANIZATION_ASSIGNMENT ( #78, #27, ( #169 ) ) ;
#83 = LINE ( 'NONE', #139, #77 ) ;
#84 = CARTESIAN_POINT ( 'NONE',  ( 0.0000000000000000000, 0.0000000000000000000, 1.500000000000000000 ) ) ;
#85 = APPROVAL_PERSON_ORGANIZATION ( #162, #67, #12 ) ;
#86 = MANIFOLD_SOLID_BREP ( 'Boss-Extrude1', #39 ) ;
#87 = AXIS2_PLACEMENT_3D ( 'NONE', #44, #2, #138 ) ;
#88 = PRODUCT_DEFINITION_SHAPE ( 'NONE', 'NONE',  #1 ) ;
#89 = COORDINATED_UNIVERSAL_TIME_OFFSET ( 5, 0, .BEHIND. ) ;
#90 = PLANE ( 'NONE',  #134 ) ;
#91 = ORIENTED_EDGE ( 'NONE', *, *, #80, .T. ) ;
#92 = EDGE_CURVE ( 'NONE', #52, #49, #166, .T. ) ;
#93 = SECURITY_CLASSIFICATION_LEVEL ( 'unclassified' ) ;
#94 = AXIS2_PLACEMENT_3D ( 'NONE', #121, #170, #118 ) ;
#95 = APPROVAL_DATE_TIME ( #33, #128 ) ;
#96 = FACE_OUTER_BOUND ( 'NONE', #73, .T. ) ;
#97 = ORIENTED_EDGE ( 'NONE', *, *, #92, .T. ) ;
#98 = PRODUCT_DEFINITION_FORMATION_WITH_SPECIFIED_SOURCE ( 'ANY', '', #35, .NOT_KNOWN. ) ;
#99 = EDGE_CURVE ( 'NONE', #52, #66, #144, .T. ) ;
#100 = DIRECTION ( 'NONE',  ( 1.000000000000000000, 0.0000000000000000000, 0.0000000000000000000 ) ) ;
#101 = APPLICATION_PROTOCOL_DEFINITION ( 'international standard', 'config_control_design', 1994, #119 ) ;
#102 = COORDINATED_UNIVERSAL_TIME_OFFSET ( 5, 0, .BEHIND. ) ;
#103 = CARTESIAN_POINT ( 'NONE',  ( 0.0000000000000000000, 0.0000000000000000000, -1.500000000000000000 ) ) ;
#104 =( LENGTH_UNIT ( ) NAMED_UNIT ( * ) SI_UNIT ( .MILLI., .METRE. ) );
#105 = VERTEX_POINT ( 'NONE', #156 ) ;
#106 = CC_DESIGN_PERSON_AND_ORGANIZATION_ASSIGNMENT ( #72, #133, ( #98 ) ) ;
#107 = PERSON_AND_ORGANIZATION ( #153, #141 ) ;
#108 = FACE_OUTER_BOUND ( 'NONE', #164, .T. ) ;
#109 = CC_DESIGN_SECURITY_CLASSIFICATION ( #169, ( #98 ) ) ;
#110 = EDGE_CURVE ( 'NONE', #66, #105, #62, .T. ) ;
#111 = APPROVAL_DATE_TIME ( #29, #76 ) ;
#112 =( GEOMETRIC_REPRESENTATION_CONTEXT ( 3 ) GLOBAL_UNCERTAINTY_ASSIGNED_CONTEXT ( ( #142 ) ) GLOBAL_UNIT_ASSIGNED_CONTEXT ( ( #104, #132, #50 ) ) REPRESENTATION_CONTEXT ( 'NONE', 'WORKASPACE' ) );
#113 = ORIENTED_EDGE ( 'NONE', *, *, #110, .T. ) ;
#114 = COORDINATED_UNIVERSAL_TIME_OFFSET ( 5, 0, .BEHIND. ) ;
#115 = DIRECTION ( 'NONE',  ( 1.000000000000000000, 0.0000000000000000000, 0.0000000000000000000 ) ) ;
#116 = DATE_AND_TIME ( #165, #11 ) ;
#117 = PLANE ( 'NONE',  #26 ) ;
#118 = DIRECTION ( 'NONE',  ( 1.000000000000000000, 0.0000000000000000000, 0.0000000000000000000 ) ) ;
#119 = APPLICATION_CONTEXT ( 'configuration controlled 3d designs of mechanical parts and assemblies' ) ;
#120 = CC_DESIGN_DATE_AND_TIME_ASSIGNMENT ( #25, #146, ( #169 ) ) ;
#121 = CARTESIAN_POINT ( 'NONE',  ( 0.0000000000000000000, 0.0000000000000000000, 0.0000000000000000000 ) ) ;
#122 = DATE_AND_TIME ( #147, #45 ) ;
#123 = ORIENTED_EDGE ( 'NONE', *, *, #80, .F. ) ;
#124 = DIRECTION ( 'NONE',  ( 1.000000000000000000, 0.0000000000000000000, -0.0000000000000000000 ) ) ;
#125 = ADVANCED_BREP_SHAPE_REPRESENTATION ( '36935_36961', ( #86, #94 ), #112 ) ;
#126 = CIRCLE ( 'NONE', #38, 37.49999999999999300 ) ;
#127 = ADVANCED_FACE ( 'NONE', ( #130 ), #117, .F. ) ;
#128 = APPROVAL ( #75, 'UNSPECIFIED' ) ;
#129 = EDGE_CURVE ( 'NONE', #105, #66, #43, .T. ) ;
#130 = FACE_OUTER_BOUND ( 'NONE', #14, .T. ) ;
#131 = CARTESIAN_POINT ( 'NONE',  ( 37.49999999999999300, 4.592425496802573600E-015, 1.500000000000000000 ) ) ;
#132 =( NAMED_UNIT ( * ) PLANE_ANGLE_UNIT ( ) SI_UNIT ( $, .RADIAN. ) );
#133 = PERSON_AND_ORGANIZATION_ROLE ( 'creator' ) ;
#134 = AXIS2_PLACEMENT_3D ( 'NONE', #161, #157, #124 ) ;
#135 = APPROVAL_ROLE ( '' ) ;
#136 = PERSON_AND_ORGANIZATION ( #153, #141 ) ;
#137 = LOCAL_TIME ( 16, 36, 35.00000000000000000, #102 ) ;
#138 = DIRECTION ( 'NONE',  ( -1.000000000000000000, 0.0000000000000000000, 0.0000000000000000000 ) ) ;
#139 = CARTESIAN_POINT ( 'NONE',  ( 37.49999999999999300, 4.592425496802573600E-015, 1.500000000000000000 ) ) ;
#140 = DIRECTION ( 'NONE',  ( -0.0000000000000000000, -0.0000000000000000000, -1.000000000000000000 ) ) ;
#141 = ORGANIZATION ( 'UNSPECIFIED', 'UNSPECIFIED', '' ) ;
#142 = UNCERTAINTY_MEASURE_WITH_UNIT (LENGTH_MEASURE( 1.000000000000000100E-005 ), #104, 'distance_accuracy_value', 'NONE');
#143 = APPLICATION_CONTEXT ( 'configuration controlled 3d designs of mechanical parts and assemblies' ) ;
#144 = LINE ( 'NONE', #34, #9 ) ;
#145 = CC_DESIGN_DATE_AND_TIME_ASSIGNMENT ( #122, #74, ( #1 ) ) ;
#146 = DATE_TIME_ROLE ( 'classification_date' ) ;
#147 = CALENDAR_DATE ( 2017, 23, 8 ) ;
#148 = PRODUCT_RELATED_PRODUCT_CATEGORY ( 'detail', '', ( #35 ) ) ;
#149 = FACE_OUTER_BOUND ( 'NONE', #37, .T. ) ;
#150 = ADVANCED_FACE ( 'NONE', ( #149 ), #175, .T. ) ;
#151 = LOCAL_TIME ( 16, 36, 35.00000000000000000, #163 ) ;
#152 = ORIENTED_EDGE ( 'NONE', *, *, #99, .T. ) ;
#153 = PERSON ( 'UNSPECIFIED', 'UNSPECIFIED', 'UNSPECIFIED', ('UNSPECIFIED'), ('UNSPECIFIED'), ('UNSPECIFIED') ) ;
#154 = AXIS2_PLACEMENT_3D ( 'NONE', #17, #168, #115 ) ;
#155 = APPROVAL_PERSON_ORGANIZATION ( #107, #76, #135 ) ;
#156 = CARTESIAN_POINT ( 'NONE',  ( 37.49999999999999300, 4.592425496802573600E-015, -1.500000000000000000 ) ) ;
#157 = DIRECTION ( 'NONE',  ( 0.0000000000000000000, 0.0000000000000000000, 1.000000000000000000 ) ) ;
#158 = CC_DESIGN_APPROVAL ( #67, ( #169 ) ) ;
#159 = APPROVAL_ROLE ( '' ) ;
#160 = ORIENTED_EDGE ( 'NONE', *, *, #51, .F. ) ;
#161 = CARTESIAN_POINT ( 'NONE',  ( 0.0000000000000000000, 0.0000000000000000000, 1.500000000000000000 ) ) ;
#162 = PERSON_AND_ORGANIZATION ( #153, #141 ) ;
#163 = COORDINATED_UNIVERSAL_TIME_OFFSET ( 5, 0, .BEHIND. ) ;
#164 = EDGE_LOOP ( 'NONE', ( #97, #42 ) ) ;
#165 = CALENDAR_DATE ( 2017, 23, 8 ) ;
#166 = CIRCLE ( 'NONE', #154, 37.49999999999999300 ) ;
#167 = CYLINDRICAL_SURFACE ( 'NONE', #87, 37.49999999999999300 ) ;
#168 = DIRECTION ( 'NONE',  ( 0.0000000000000000000, 0.0000000000000000000, 1.000000000000000000 ) ) ;
#169 = SECURITY_CLASSIFICATION ( '', '', #93 ) ;
#170 = DIRECTION ( 'NONE',  ( 0.0000000000000000000, 0.0000000000000000000, 1.000000000000000000 ) ) ;
#171 = DIRECTION ( 'NONE',  ( 1.000000000000000000, 0.0000000000000000000, 0.0000000000000000000 ) ) ;
#172 = AXIS2_PLACEMENT_3D ( 'NONE', #68, #18, #100 ) ;
#173 = PERSON_AND_ORGANIZATION_ROLE ( 'design_supplier' ) ;
#174 = ADVANCED_FACE ( 'NONE', ( #108 ), #90, .T. ) ;
#175 = CYLINDRICAL_SURFACE ( 'NONE', #46, 37.49999999999999300 ) ;
ENDSEC;
END-ISO-10303-21;
