ISO-10303-21;
HEADER;
FILE_DESCRIPTION (( 'STEP AP203' ),
    '1' );
FILE_NAME ('4348-E0W.STEP',
    '2015-06-17T20:52:39',
    ( 'admin' ),
    ( '' ),
    'SwSTEP 2.0',
    'SolidWorks 2014',
    '' );
FILE_SCHEMA (( 'CONFIG_CONTROL_DESIGN' ));
ENDSEC;

DATA;
#1 = VERTEX_POINT ( 'NONE', #60 ) ;
#2 = DIRECTION ( 'NONE',  ( 1.000000000000000000, 0.0000000000000000000, 0.0000000000000000000 ) ) ;
#3 = CARTESIAN_POINT ( 'NONE',  ( 0.0000000000000000000, 0.0000000000000000000, 1.953239679555652800 ) ) ;
#4 = COORDINATED_UNIVERSAL_TIME_OFFSET ( 5, 0, .BEHIND. ) ;
#5 = ORIENTED_EDGE ( 'NONE', *, *, #74, .T. ) ;
#6 = APPROVAL ( #194, 'UNSPECIFIED' ) ;
#7 = EDGE_CURVE ( 'NONE', #285, #38, #107, .T. ) ;
#8 = ORIENTED_EDGE ( 'NONE', *, *, #281, .F. ) ;
#9 = DIRECTION ( 'NONE',  ( 0.0000000000000000000, 0.0000000000000000000, -1.000000000000000000 ) ) ;
#10 = CARTESIAN_POINT ( 'NONE',  ( 0.0000000000000000000, 0.0000000000000000000, 1.737156503027313500 ) ) ;
#11 = FACE_OUTER_BOUND ( 'NONE', #88, .T. ) ;
#12 =( GEOMETRIC_REPRESENTATION_CONTEXT ( 3 ) GLOBAL_UNCERTAINTY_ASSIGNED_CONTEXT ( ( #246 ) ) GLOBAL_UNIT_ASSIGNED_CONTEXT ( ( #62, #192, #319 ) ) REPRESENTATION_CONTEXT ( 'NONE', 'WORKASPACE' ) );
#13 = VERTEX_POINT ( 'NONE', #76 ) ;
#14 = DIRECTION ( 'NONE',  ( 1.000000000000000000, 0.0000000000000000000, 0.0000000000000000000 ) ) ;
#15 = CARTESIAN_POINT ( 'NONE',  ( 6.101710872276424200, 7.624473931820810600E-016, 1.953239679555652800 ) ) ;
#16 = PRODUCT ( '4348-E0W', '4348-E0W', '', ( #134 ) ) ;
#17 = CARTESIAN_POINT ( 'NONE',  ( 0.0000000000000000000, 0.0000000000000000000, -1.703239679555649900 ) ) ;
#18 = FACE_OUTER_BOUND ( 'NONE', #231, .T. ) ;
#19 = CC_DESIGN_APPROVAL ( #6, ( #272 ) ) ;
#20 = COORDINATED_UNIVERSAL_TIME_OFFSET ( 5, 0, .BEHIND. ) ;
#21 = CALENDAR_DATE ( 2015, 17, 6 ) ;
#22 = PERSON_AND_ORGANIZATION ( #260, #175 ) ;
#23 = DIRECTION ( 'NONE',  ( 1.000000000000000000, 0.0000000000000000000, 0.0000000000000000000 ) ) ;
#24 = ORIENTED_EDGE ( 'NONE', *, *, #25, .F. ) ;
#25 = EDGE_CURVE ( 'NONE', #298, #318, #101, .T. ) ;
#26 = AXIS2_PLACEMENT_3D ( 'NONE', #108, #120, #23 ) ;
#27 = DIRECTION ( 'NONE',  ( 0.7543352962247137400, 9.237943060054661900E-017, -0.6564893455872482500 ) ) ;
#28 = LINE ( 'NONE', #177, #188 ) ;
#29 = DIRECTION ( 'NONE',  ( -0.0000000000000000000, -0.0000000000000000000, 1.000000000000000000 ) ) ;
#30 = CC_DESIGN_SECURITY_CLASSIFICATION ( #272, ( #197 ) ) ;
#31 = APPROVAL_PERSON_ORGANIZATION ( #314, #211, #181 ) ;
#32 = EDGE_CURVE ( 'NONE', #318, #253, #103, .T. ) ;
#33 = DIRECTION ( 'NONE',  ( -0.0000000000000000000, -0.0000000000000000000, 1.000000000000000000 ) ) ;
#34 = CIRCLE ( 'NONE', #299, 6.101710872276424200 ) ;
#35 = VECTOR ( 'NONE', #283, 1000.000000000000000 ) ;
#36 = AXIS2_PLACEMENT_3D ( 'NONE', #257, #84, #242 ) ;
#37 = APPROVAL_DATE_TIME ( #293, #126 ) ;
#38 = VERTEX_POINT ( 'NONE', #235 ) ;
#39 = VERTEX_POINT ( 'NONE', #210 ) ;
#40 = CONICAL_SURFACE ( 'NONE', #277, 6.101710872276420600, 0.8546410169918825500 ) ;
#41 = DATE_AND_TIME ( #263, #75 ) ;
#42 = ORIENTED_EDGE ( 'NONE', *, *, #7, .T. ) ;
#43 = ORIENTED_EDGE ( 'NONE', *, *, #204, .F. ) ;
#44 = ORIENTED_EDGE ( 'NONE', *, *, #178, .F. ) ;
#45 = DIRECTION ( 'NONE',  ( 0.0000000000000000000, 0.0000000000000000000, -1.000000000000000000 ) ) ;
#46 = ORIENTED_EDGE ( 'NONE', *, *, #138, .F. ) ;
#47 = PRODUCT_RELATED_PRODUCT_CATEGORY ( 'detail', '', ( #16 ) ) ;
#48 = DIRECTION ( 'NONE',  ( -0.7543352962247137400, 0.0000000000000000000, -0.6564893455872482500 ) ) ;
#49 = DESIGN_CONTEXT ( 'detailed design', #202, 'design' ) ;
#50 = CARTESIAN_POINT ( 'NONE',  ( 0.0000000000000000000, 0.0000000000000000000, 1.953239679555652800 ) ) ;
#51 = PERSON_AND_ORGANIZATION_ROLE ( 'classification_officer' ) ;
#52 = CARTESIAN_POINT ( 'NONE',  ( 0.0000000000000000000, 0.0000000000000000000, 0.0000000000000000000 ) ) ;
#53 = DIRECTION ( 'NONE',  ( 0.0000000000000000000, 1.000000000000000000, 0.0000000000000000000 ) ) ;
#54 = ADVANCED_BREP_SHAPE_REPRESENTATION ( '4348-E0W', ( #128, #78 ), #12 ) ;
#55 = CARTESIAN_POINT ( 'NONE',  ( 0.0000000000000000000, 2.816687638038912400E-015, 1.546760320444345900 ) ) ;
#56 = DIRECTION ( 'NONE',  ( 0.0000000000000000000, 0.0000000000000000000, -1.000000000000000000 ) ) ;
#57 = CIRCLE ( 'NONE', #102, 46.00000000000000000 ) ;
#58 = CARTESIAN_POINT ( 'NONE',  ( 0.0000000000000000000, 0.0000000000000000000, -1.703239679555649900 ) ) ;
#59 = DIRECTION ( 'NONE',  ( 1.000000000000000000, 0.0000000000000000000, 0.0000000000000000000 ) ) ;
#60 = CARTESIAN_POINT ( 'NONE',  ( -6.350000000000001400, 7.776507174585694100E-016, -1.703239679555649900 ) ) ;
#61 = CARTESIAN_POINT ( 'NONE',  ( 0.0000000000000000000, 0.0000000000000000000, 47.54676032044434200 ) ) ;
#62 =( LENGTH_UNIT ( ) NAMED_UNIT ( * ) SI_UNIT ( .MILLI., .METRE. ) );
#63 = ORIENTED_EDGE ( 'NONE', *, *, #74, .F. ) ;
#64 = DIRECTION ( 'NONE',  ( -1.000000000000000000, 0.0000000000000000000, 0.0000000000000000000 ) ) ;
#65 = ORIENTED_EDGE ( 'NONE', *, *, #292, .F. ) ;
#66 = DIRECTION ( 'NONE',  ( -0.0000000000000000000, -0.0000000000000000000, 1.000000000000000000 ) ) ;
#67 = DIRECTION ( 'NONE',  ( -1.224646799147353200E-016, -1.000000000000000000, 0.0000000000000000000 ) ) ;
#68 = ADVANCED_FACE ( 'NONE', ( #176 ), #125, .T. ) ;
#69 = EDGE_CURVE ( 'NONE', #298, #1, #129, .T. ) ;
#70 = DATE_AND_TIME ( #21, #250 ) ;
#71 = CARTESIAN_POINT ( 'NONE',  ( 0.0000000000000000000, 0.0000000000000000000, 47.54676032044434200 ) ) ;
#72 = DIRECTION ( 'NONE',  ( 0.0000000000000000000, -0.0000000000000000000, 1.000000000000000000 ) ) ;
#73 = CYLINDRICAL_SURFACE ( 'NONE', #245, 6.350000000000001400 ) ;
#74 = EDGE_CURVE ( 'NONE', #1, #298, #171, .T. ) ;
#75 = LOCAL_TIME ( 16, 52, 39.00000000000000000, #161 ) ;
#76 = CARTESIAN_POINT ( 'NONE',  ( 0.0000000000000000000, 6.101710872276418800, 1.953239679555648100 ) ) ;
#77 = DATE_AND_TIME ( #190, #110 ) ;
#78 = AXIS2_PLACEMENT_3D ( 'NONE', #52, #225, #172 ) ;
#79 = ORIENTED_EDGE ( 'NONE', *, *, #69, .T. ) ;
#80 = DIRECTION ( 'NONE',  ( 0.7071067811865487900, 0.0000000000000000000, 0.7071067811865463500 ) ) ;
#81 = ORIENTED_EDGE ( 'NONE', *, *, #124, .T. ) ;
#82 = DIRECTION ( 'NONE',  ( -1.000000000000000000, 0.0000000000000000000, 0.0000000000000000000 ) ) ;
#83 = CIRCLE ( 'NONE', #162, 6.101710872276424200 ) ;
#84 = DIRECTION ( 'NONE',  ( -0.0000000000000000000, -0.0000000000000000000, 1.000000000000000000 ) ) ;
#85 = ORIENTED_EDGE ( 'NONE', *, *, #32, .T. ) ;
#86 = CIRCLE ( 'NONE', #184, 6.099999999999997900 ) ;
#87 = DIRECTION ( 'NONE',  ( -1.000000000000000000, 0.0000000000000000000, 0.0000000000000000000 ) ) ;
#88 = EDGE_LOOP ( 'NONE', ( #269, #205 ) ) ;
#89 = DIRECTION ( 'NONE',  ( 1.000000000000000000, 0.0000000000000000000, 0.0000000000000000000 ) ) ;
#90 = COORDINATED_UNIVERSAL_TIME_OFFSET ( 5, 0, .BEHIND. ) ;
#91 = DIRECTION ( 'NONE',  ( 0.0000000000000000000, 0.0000000000000000000, -1.000000000000000000 ) ) ;
#92 = DATE_TIME_ROLE ( 'classification_date' ) ;
#93 = EDGE_CURVE ( 'NONE', #183, #1, #251, .T. ) ;
#94 = VECTOR ( 'NONE', #29, 1000.000000000000000 ) ;
#95 = DIRECTION ( 'NONE',  ( 1.000000000000000000, -0.0000000000000000000, 0.0000000000000000000 ) ) ;
#96 = CC_DESIGN_PERSON_AND_ORGANIZATION_ASSIGNMENT ( #243, #238, ( #16 ) ) ;
#97 = APPROVAL_ROLE ( '' ) ;
#98 = DIRECTION ( 'NONE',  ( -0.0000000000000000000, -0.0000000000000000000, 1.000000000000000000 ) ) ;
#99 = APPROVAL_DATE_TIME ( #41, #211 ) ;
#100 = ADVANCED_FACE ( 'NONE', ( #139 ), #226, .F. ) ;
#101 = LINE ( 'NONE', #306, #94 ) ;
#102 = AXIS2_PLACEMENT_3D ( 'NONE', #166, #95, #140 ) ;
#103 = CIRCLE ( 'NONE', #230, 6.350000000000001400 ) ;
#104 = ORIENTED_EDGE ( 'NONE', *, *, #32, .F. ) ;
#105 = CARTESIAN_POINT ( 'NONE',  ( -6.350000000000001400, 7.776507174585694100E-016, -1.703239679555649900 ) ) ;
#106 = DIRECTION ( 'NONE',  ( 1.000000000000000000, 0.0000000000000000000, 0.0000000000000000000 ) ) ;
#107 = CIRCLE ( 'NONE', #273, 6.101710872276424200 ) ;
#108 = CARTESIAN_POINT ( 'NONE',  ( 0.0000000000000000000, 0.0000000000000000000, 1.953239679555652800 ) ) ;
#109 = PRODUCT_DEFINITION ( 'UNKNOWN', '', #197, #49 ) ;
#110 = LOCAL_TIME ( 16, 52, 39.00000000000000000, #90 ) ;
#111 = DIRECTION ( 'NONE',  ( 0.0000000000000000000, 0.0000000000000000000, -1.000000000000000000 ) ) ;
#112 = VECTOR ( 'NONE', #114, 1000.000000000000000 ) ;
#113 = EDGE_LOOP ( 'NONE', ( #121, #5, #232, #85 ) ) ;
#114 = DIRECTION ( 'NONE',  ( -0.7071067811865487900, 8.659560562354948900E-017, 0.7071067811865463500 ) ) ;
#115 = CARTESIAN_POINT ( 'NONE',  ( -6.099999999999997900, 7.623426324692274200E-016, -1.953239679555652800 ) ) ;
#116 = EDGE_CURVE ( 'NONE', #118, #318, #265, .T. ) ;
#117 = APPROVAL_ROLE ( '' ) ;
#118 = VERTEX_POINT ( 'NONE', #15 ) ;
#119 = ORIENTED_EDGE ( 'NONE', *, *, #93, .F. ) ;
#120 = DIRECTION ( 'NONE',  ( -0.0000000000000000000, -0.0000000000000000000, 1.000000000000000000 ) ) ;
#121 = ORIENTED_EDGE ( 'NONE', *, *, #259, .F. ) ;
#122 = ADVANCED_FACE ( 'NONE', ( #18 ), #198, .T. ) ;
#123 = PERSON_AND_ORGANIZATION ( #260, #175 ) ;
#124 = EDGE_CURVE ( 'NONE', #195, #38, #284, .T. ) ;
#125 = CONICAL_SURFACE ( 'NONE', #209, 6.350000000000001400, 0.7853981633974500600 ) ;
#126 = APPROVAL ( #153, 'UNSPECIFIED' ) ;
#127 = CALENDAR_DATE ( 2015, 17, 6 ) ;
#128 = MANIFOLD_SOLID_BREP ( '4348-001-1-solid1', #279 ) ;
#129 = CIRCLE ( 'NONE', #276, 6.350000000000001400 ) ;
#130 = ORIENTED_EDGE ( 'NONE', *, *, #149, .F. ) ;
#131 = DIRECTION ( 'NONE',  ( -0.0000000000000000000, -0.0000000000000000000, 1.000000000000000000 ) ) ;
#132 = CARTESIAN_POINT ( 'NONE',  ( 0.0000000000000000000, 0.0000000000000000000, -1.703239679555649900 ) ) ;
#133 = EDGE_CURVE ( 'NONE', #285, #253, #148, .T. ) ;
#134 = MECHANICAL_CONTEXT ( 'NONE', #266, 'mechanical' ) ;
#135 = AXIS2_PLACEMENT_3D ( 'NONE', #262, #91, #64 ) ;
#136 = DIRECTION ( 'NONE',  ( -1.000000000000000000, 0.0000000000000000000, 0.0000000000000000000 ) ) ;
#137 = ORIENTED_EDGE ( 'NONE', *, *, #133, .T. ) ;
#138 = EDGE_CURVE ( 'NONE', #13, #285, #304, .T. ) ;
#139 = FACE_OUTER_BOUND ( 'NONE', #222, .T. ) ;
#140 = DIRECTION ( 'NONE',  ( 0.0000000000000000000, 0.0000000000000000000, -1.000000000000000000 ) ) ;
#141 = FACE_OUTER_BOUND ( 'NONE', #219, .T. ) ;
#142 = DATE_AND_TIME ( #218, #151 ) ;
#143 = APPROVAL_DATE_TIME ( #70, #6 ) ;
#144 = AXIS2_PLACEMENT_3D ( 'NONE', #182, #136, #53 ) ;
#145 = CC_DESIGN_APPROVAL ( #126, ( #109 ) ) ;
#146 = FACE_OUTER_BOUND ( 'NONE', #220, .T. ) ;
#147 = FACE_OUTER_BOUND ( 'NONE', #271, .T. ) ;
#148 = LINE ( 'NONE', #207, #206 ) ;
#149 = EDGE_CURVE ( 'NONE', #195, #13, #57, .T. ) ;
#150 = CARTESIAN_POINT ( 'NONE',  ( -6.350000000000001400, 7.776507174585694100E-016, 1.737156503027313500 ) ) ;
#151 = LOCAL_TIME ( 16, 52, 39.00000000000000000, #221 ) ;
#152 = DIRECTION ( 'NONE',  ( 0.0000000000000000000, 0.0000000000000000000, -1.000000000000000000 ) ) ;
#153 = APPROVAL_STATUS ( 'not_yet_approved' ) ;
#154 = ORIENTED_EDGE ( 'NONE', *, *, #116, .T. ) ;
#155 = DIRECTION ( 'NONE',  ( 1.000000000000000000, 0.0000000000000000000, 0.0000000000000000000 ) ) ;
#156 = DIRECTION ( 'NONE',  ( -0.0000000000000000000, -0.0000000000000000000, 1.000000000000000000 ) ) ;
#157 = CC_DESIGN_PERSON_AND_ORGANIZATION_ASSIGNMENT ( #302, #300, ( #109 ) ) ;
#158 = CARTESIAN_POINT ( 'NONE',  ( 0.0000000000000000000, 0.0000000000000000000, 1.737156503027313500 ) ) ;
#159 = ORIENTED_EDGE ( 'NONE', *, *, #93, .T. ) ;
#160 = CARTESIAN_POINT ( 'NONE',  ( 0.0000000000000000000, 0.0000000000000000000, -1.703239679555649900 ) ) ;
#161 = COORDINATED_UNIVERSAL_TIME_OFFSET ( 5, 0, .BEHIND. ) ;
#162 = AXIS2_PLACEMENT_3D ( 'NONE', #50, #179, #106 ) ;
#163 = ORIENTED_EDGE ( 'NONE', *, *, #281, .T. ) ;
#164 = EDGE_LOOP ( 'NONE', ( #44, #159, #278, #65 ) ) ;
#165 = DIRECTION ( 'NONE',  ( -1.000000000000000000, 0.0000000000000000000, 0.0000000000000000000 ) ) ;
#166 = CARTESIAN_POINT ( 'NONE',  ( 0.0000000000000000000, 0.0000000000000000000, 47.54676032044434200 ) ) ;
#167 = SPHERICAL_SURFACE ( 'NONE', #203, 46.00000000000000000 ) ;
#168 = ORIENTED_EDGE ( 'NONE', *, *, #7, .F. ) ;
#169 = DIRECTION ( 'NONE',  ( -0.0000000000000000000, -0.0000000000000000000, 1.000000000000000000 ) ) ;
#170 = ADVANCED_FACE ( 'NONE', ( #147 ), #193, .T. ) ;
#171 = CIRCLE ( 'NONE', #286, 6.350000000000001400 ) ;
#172 = DIRECTION ( 'NONE',  ( 1.000000000000000000, 0.0000000000000000000, 0.0000000000000000000 ) ) ;
#173 = APPROVAL_STATUS ( 'not_yet_approved' ) ;
#174 = CC_DESIGN_DATE_AND_TIME_ASSIGNMENT ( #142, #223, ( #109 ) ) ;
#175 = ORGANIZATION ( 'UNSPECIFIED', 'UNSPECIFIED', '' ) ;
#176 = FACE_OUTER_BOUND ( 'NONE', #317, .T. ) ;
#177 = CARTESIAN_POINT ( 'NONE',  ( 6.350000000000001400, 0.0000000000000000000, -1.703239679555649900 ) ) ;
#178 = EDGE_CURVE ( 'NONE', #183, #39, #282, .T. ) ;
#179 = DIRECTION ( 'NONE',  ( -0.0000000000000000000, -0.0000000000000000000, 1.000000000000000000 ) ) ;
#180 = LOCAL_TIME ( 16, 52, 39.00000000000000000, #20 ) ;
#181 = APPROVAL_ROLE ( '' ) ;
#182 = CARTESIAN_POINT ( 'NONE',  ( 0.0000000000000000000, 0.0000000000000000000, 47.54676032044434200 ) ) ;
#183 = VERTEX_POINT ( 'NONE', #115 ) ;
#184 = AXIS2_PLACEMENT_3D ( 'NONE', #244, #45, #59 ) ;
#185 = PERSON_AND_ORGANIZATION_ROLE ( 'creator' ) ;
#186 = EDGE_CURVE ( 'NONE', #118, #13, #83, .T. ) ;
#187 = CARTESIAN_POINT ( 'NONE',  ( 0.0000000000000000000, 0.0000000000000000000, -1.953239679555652800 ) ) ;
#188 = VECTOR ( 'NONE', #80, 1000.000000000000000 ) ;
#189 = PERSON_AND_ORGANIZATION_ROLE ( 'design_supplier' ) ;
#190 = CALENDAR_DATE ( 2015, 17, 6 ) ;
#191 = ORIENTED_EDGE ( 'NONE', *, *, #186, .F. ) ;
#192 =( NAMED_UNIT ( * ) PLANE_ANGLE_UNIT ( ) SI_UNIT ( $, .RADIAN. ) );
#193 = CONICAL_SURFACE ( 'NONE', #135, 6.101710872276420600, 0.8546410169918825500 ) ;
#194 = APPROVAL_STATUS ( 'not_yet_approved' ) ;
#195 = VERTEX_POINT ( 'NONE', #55 ) ;
#196 = APPLICATION_PROTOCOL_DEFINITION ( 'international standard', 'config_control_design', 1994, #266 ) ;
#197 = PRODUCT_DEFINITION_FORMATION_WITH_SPECIFIED_SOURCE ( 'ANY', '', #16, .NOT_KNOWN. ) ;
#198 = CYLINDRICAL_SURFACE ( 'NONE', #36, 6.350000000000001400 ) ;
#199 = ORIENTED_EDGE ( 'NONE', *, *, #116, .F. ) ;
#200 = ADVANCED_FACE ( 'NONE', ( #141 ), #167, .F. ) ;
#201 = DIRECTION ( 'NONE',  ( 1.000000000000000000, 0.0000000000000000000, 0.0000000000000000000 ) ) ;
#202 = APPLICATION_CONTEXT ( 'configuration controlled 3d designs of mechanical parts and assemblies' ) ;
#203 = AXIS2_PLACEMENT_3D ( 'NONE', #71, #82, #305 ) ;
#204 = EDGE_CURVE ( 'NONE', #39, #183, #86, .T. ) ;
#205 = ORIENTED_EDGE ( 'NONE', *, *, #178, .T. ) ;
#206 = VECTOR ( 'NONE', #48, 1000.000000000000100 ) ;
#207 = CARTESIAN_POINT ( 'NONE',  ( -6.101710872276420600, 0.0000000000000000000, 1.953239679555652800 ) ) ;
#208 = DIRECTION ( 'NONE',  ( 1.000000000000000000, 0.0000000000000000000, 0.0000000000000000000 ) ) ;
#209 = AXIS2_PLACEMENT_3D ( 'NONE', #58, #98, #14 ) ;
#210 = CARTESIAN_POINT ( 'NONE',  ( 6.099999999999997900, 0.0000000000000000000, -1.953239679555652800 ) ) ;
#211 = APPROVAL ( #173, 'UNSPECIFIED' ) ;
#212 = CARTESIAN_POINT ( 'NONE',  ( 6.101710872276420600, 7.472440689055924100E-016, 1.953239679555652800 ) ) ;
#213 = AXIS2_PLACEMENT_3D ( 'NONE', #10, #56, #87 ) ;
#214 = DIRECTION ( 'NONE',  ( -0.0000000000000000000, -0.0000000000000000000, 1.000000000000000000 ) ) ;
#215 = ORIENTED_EDGE ( 'NONE', *, *, #186, .T. ) ;
#216 = CARTESIAN_POINT ( 'NONE',  ( 0.0000000000000000000, 0.0000000000000000000, 1.546760320444347000 ) ) ;
#217 = ADVANCED_FACE ( 'NONE', ( #313 ), #73, .T. ) ;
#218 = CALENDAR_DATE ( 2015, 17, 6 ) ;
#219 = EDGE_LOOP ( 'NONE', ( #309, #248, #264, #42 ) ) ;
#220 = EDGE_LOOP ( 'NONE', ( #191, #154, #8, #303, #46 ) ) ;
#221 = COORDINATED_UNIVERSAL_TIME_OFFSET ( 5, 0, .BEHIND. ) ;
#222 = EDGE_LOOP ( 'NONE', ( #130, #81, #287, #215 ) ) ;
#223 = DATE_TIME_ROLE ( 'creation_date' ) ;
#224 = CC_DESIGN_APPROVAL ( #211, ( #197 ) ) ;
#225 = DIRECTION ( 'NONE',  ( 0.0000000000000000000, 0.0000000000000000000, 1.000000000000000000 ) ) ;
#226 = SPHERICAL_SURFACE ( 'NONE', #144, 46.00000000000000000 ) ;
#227 = AXIS2_PLACEMENT_3D ( 'NONE', #307, #152, #228 ) ;
#228 = DIRECTION ( 'NONE',  ( 1.000000000000000000, 0.0000000000000000000, 0.0000000000000000000 ) ) ;
#229 = DIRECTION ( 'NONE',  ( 1.000000000000000000, 0.0000000000000000000, 0.0000000000000000000 ) ) ;
#230 = AXIS2_PLACEMENT_3D ( 'NONE', #158, #111, #165 ) ;
#231 = EDGE_LOOP ( 'NONE', ( #79, #237, #163, #24 ) ) ;
#232 = ORIENTED_EDGE ( 'NONE', *, *, #25, .T. ) ;
#233 = SECURITY_CLASSIFICATION_LEVEL ( 'unclassified' ) ;
#234 = CARTESIAN_POINT ( 'NONE',  ( 0.0000000000000000000, 0.0000000000000000000, 1.953239679555652800 ) ) ;
#235 = CARTESIAN_POINT ( 'NONE',  ( -7.472440689055921100E-016, -6.101710872276418800, 1.953239679555648100 ) ) ;
#236 = PRODUCT_DEFINITION_SHAPE ( 'NONE', 'NONE',  #109 ) ;
#237 = ORIENTED_EDGE ( 'NONE', *, *, #259, .T. ) ;
#238 = PERSON_AND_ORGANIZATION_ROLE ( 'design_owner' ) ;
#239 = CC_DESIGN_PERSON_AND_ORGANIZATION_ASSIGNMENT ( #275, #185, ( #197 ) ) ;
#240 = CARTESIAN_POINT ( 'NONE',  ( -6.101710872276424200, 0.0000000000000000000, 1.953239679555652800 ) ) ;
#241 = ORIENTED_EDGE ( 'NONE', *, *, #292, .T. ) ;
#242 = DIRECTION ( 'NONE',  ( 1.000000000000000000, 0.0000000000000000000, 0.0000000000000000000 ) ) ;
#243 = PERSON_AND_ORGANIZATION ( #260, #175 ) ;
#244 = CARTESIAN_POINT ( 'NONE',  ( 0.0000000000000000000, 0.0000000000000000000, -1.953239679555652800 ) ) ;
#245 = AXIS2_PLACEMENT_3D ( 'NONE', #216, #33, #89 ) ;
#246 = UNCERTAINTY_MEASURE_WITH_UNIT (LENGTH_MEASURE( 1.000000000000000100E-005 ), #62, 'distance_accuracy_value', 'NONE');
#247 = PERSON_AND_ORGANIZATION ( #260, #175 ) ;
#248 = ORIENTED_EDGE ( 'NONE', *, *, #149, .T. ) ;
#249 = PERSON_AND_ORGANIZATION ( #260, #175 ) ;
#250 = LOCAL_TIME ( 16, 52, 39.00000000000000000, #4 ) ;
#251 = LINE ( 'NONE', #105, #112 ) ;
#252 = CARTESIAN_POINT ( 'NONE',  ( 0.0000000000000000000, 0.0000000000000000000, 1.953239679555652800 ) ) ;
#253 = VERTEX_POINT ( 'NONE', #150 ) ;
#254 = CC_DESIGN_PERSON_AND_ORGANIZATION_ASSIGNMENT ( #22, #189, ( #197 ) ) ;
#255 = AXIS2_PLACEMENT_3D ( 'NONE', #61, #291, #67 ) ;
#256 = CIRCLE ( 'NONE', #213, 6.350000000000001400 ) ;
#257 = CARTESIAN_POINT ( 'NONE',  ( 0.0000000000000000000, 0.0000000000000000000, 1.546760320444347000 ) ) ;
#258 = PLANE ( 'NONE',  #261 ) ;
#259 = EDGE_CURVE ( 'NONE', #1, #253, #321, .T. ) ;
#260 = PERSON ( 'UNSPECIFIED', 'UNSPECIFIED', 'UNSPECIFIED', ('UNSPECIFIED'), ('UNSPECIFIED'), ('UNSPECIFIED') ) ;
#261 = AXIS2_PLACEMENT_3D ( 'NONE', #187, #72, #2 ) ;
#262 = CARTESIAN_POINT ( 'NONE',  ( 0.0000000000000000000, 0.0000000000000000000, 1.953239679555652800 ) ) ;
#263 = CALENDAR_DATE ( 2015, 17, 6 ) ;
#264 = ORIENTED_EDGE ( 'NONE', *, *, #138, .T. ) ;
#265 = LINE ( 'NONE', #212, #311 ) ;
#266 = APPLICATION_CONTEXT ( 'configuration controlled 3d designs of mechanical parts and assemblies' ) ;
#267 = CARTESIAN_POINT ( 'NONE',  ( 6.350000000000001400, 0.0000000000000000000, -1.703239679555649900 ) ) ;
#268 = ADVANCED_FACE ( 'NONE', ( #11 ), #258, .F. ) ;
#269 = ORIENTED_EDGE ( 'NONE', *, *, #204, .T. ) ;
#270 = SHAPE_DEFINITION_REPRESENTATION ( #236, #54 ) ;
#271 = EDGE_LOOP ( 'NONE', ( #199, #289, #168, #137, #104 ) ) ;
#272 = SECURITY_CLASSIFICATION ( '', '', #233 ) ;
#273 = AXIS2_PLACEMENT_3D ( 'NONE', #3, #156, #229 ) ;
#274 = CONICAL_SURFACE ( 'NONE', #315, 6.350000000000001400, 0.7853981633974500600 ) ;
#275 = PERSON_AND_ORGANIZATION ( #260, #175 ) ;
#276 = AXIS2_PLACEMENT_3D ( 'NONE', #132, #66, #296 ) ;
#277 = AXIS2_PLACEMENT_3D ( 'NONE', #234, #9, #297 ) ;
#278 = ORIENTED_EDGE ( 'NONE', *, *, #69, .F. ) ;
#279 = CLOSED_SHELL ( 'NONE', ( #294, #320, #122, #100, #200, #217, #268, #68, #170 ) ) ;
#280 = FACE_OUTER_BOUND ( 'NONE', #164, .T. ) ;
#281 = EDGE_CURVE ( 'NONE', #253, #318, #256, .T. ) ;
#282 = CIRCLE ( 'NONE', #227, 6.099999999999997900 ) ;
#283 = DIRECTION ( 'NONE',  ( -0.0000000000000000000, -0.0000000000000000000, 1.000000000000000000 ) ) ;
#284 = CIRCLE ( 'NONE', #255, 46.00000000000000000 ) ;
#285 = VERTEX_POINT ( 'NONE', #240 ) ;
#286 = AXIS2_PLACEMENT_3D ( 'NONE', #160, #214, #201 ) ;
#287 = ORIENTED_EDGE ( 'NONE', *, *, #316, .T. ) ;
#288 = CARTESIAN_POINT ( 'NONE',  ( 6.350000000000001400, 0.0000000000000000000, 1.737156503027313500 ) ) ;
#289 = ORIENTED_EDGE ( 'NONE', *, *, #316, .F. ) ;
#290 = CC_DESIGN_PERSON_AND_ORGANIZATION_ASSIGNMENT ( #247, #51, ( #272 ) ) ;
#291 = DIRECTION ( 'NONE',  ( -1.000000000000000000, 1.224646799147353200E-016, 0.0000000000000000000 ) ) ;
#292 = EDGE_CURVE ( 'NONE', #39, #298, #28, .T. ) ;
#293 = DATE_AND_TIME ( #127, #180 ) ;
#294 = ADVANCED_FACE ( 'NONE', ( #146 ), #40, .T. ) ;
#295 = CARTESIAN_POINT ( 'NONE',  ( -6.350000000000001400, 7.776507174585694100E-016, 1.546760320444347000 ) ) ;
#296 = DIRECTION ( 'NONE',  ( 1.000000000000000000, 0.0000000000000000000, 0.0000000000000000000 ) ) ;
#297 = DIRECTION ( 'NONE',  ( -1.000000000000000000, 0.0000000000000000000, 0.0000000000000000000 ) ) ;
#298 = VERTEX_POINT ( 'NONE', #267 ) ;
#299 = AXIS2_PLACEMENT_3D ( 'NONE', #252, #131, #208 ) ;
#300 = PERSON_AND_ORGANIZATION_ROLE ( 'creator' ) ;
#301 = APPROVAL_PERSON_ORGANIZATION ( #249, #126, #97 ) ;
#302 = PERSON_AND_ORGANIZATION ( #260, #175 ) ;
#303 = ORIENTED_EDGE ( 'NONE', *, *, #133, .F. ) ;
#304 = CIRCLE ( 'NONE', #26, 6.101710872276424200 ) ;
#305 = DIRECTION ( 'NONE',  ( 0.0000000000000000000, 1.000000000000000000, 0.0000000000000000000 ) ) ;
#306 = CARTESIAN_POINT ( 'NONE',  ( 6.350000000000001400, 0.0000000000000000000, 1.546760320444347000 ) ) ;
#307 = CARTESIAN_POINT ( 'NONE',  ( 0.0000000000000000000, 0.0000000000000000000, -1.953239679555652800 ) ) ;
#308 = APPROVAL_PERSON_ORGANIZATION ( #123, #6, #117 ) ;
#309 = ORIENTED_EDGE ( 'NONE', *, *, #124, .F. ) ;
#310 = CC_DESIGN_DATE_AND_TIME_ASSIGNMENT ( #77, #92, ( #272 ) ) ;
#311 = VECTOR ( 'NONE', #27, 1000.000000000000100 ) ;
#312 = APPLICATION_PROTOCOL_DEFINITION ( 'international standard', 'config_control_design', 1994, #202 ) ;
#313 = FACE_OUTER_BOUND ( 'NONE', #113, .T. ) ;
#314 = PERSON_AND_ORGANIZATION ( #260, #175 ) ;
#315 = AXIS2_PLACEMENT_3D ( 'NONE', #17, #169, #155 ) ;
#316 = EDGE_CURVE ( 'NONE', #38, #118, #34, .T. ) ;
#317 = EDGE_LOOP ( 'NONE', ( #119, #43, #241, #63 ) ) ;
#318 = VERTEX_POINT ( 'NONE', #288 ) ;
#319 =( NAMED_UNIT ( * ) SI_UNIT ( $, .STERADIAN. ) SOLID_ANGLE_UNIT ( ) );
#320 = ADVANCED_FACE ( 'NONE', ( #280 ), #274, .T. ) ;
#321 = LINE ( 'NONE', #295, #35 ) ;
ENDSEC;
END-ISO-10303-21;
