ISO-10303-21;
HEADER;
FILE_DESCRIPTION (( 'STEP AP203' ),
    '1' );
FILE_NAME ('20193-E0W.STEP',
    '2009-09-14T20:51:38',
    ( 'Admin' ),
    ( 'Thorlabs, Inc.' ),
    'SwSTEP 2.0',
    'SolidWorks 2007',
    '' );
FILE_SCHEMA (( 'CONFIG_CONTROL_DESIGN' ));
ENDSEC;

DATA;
#1 = ORIENTED_EDGE ( 'NONE', *, *, #47, .T. ) ;
#2 = VERTEX_POINT ( 'NONE', #30 ) ;
#3 = ADVANCED_FACE ( 'NONE', ( #29 ), #49, .T. ) ;
#4 = ORIENTED_EDGE ( 'NONE', *, *, #19, .T. ) ;
#5 = EDGE_CURVE ( 'NONE', #37, #44, #84, .T. ) ;
#6 = ADVANCED_FACE ( 'NONE', ( #60 ), #64, .T. ) ;
#7 = ORIENTED_EDGE ( 'NONE', *, *, #19, .F. ) ;
#8 = ADVANCED_FACE ( 'NONE', ( #70 ), #77, .T. ) ;
#9 = ORIENTED_EDGE ( 'NONE', *, *, #10, .F. ) ;
#10 = EDGE_CURVE ( 'NONE', #13, #2, #68, .T. ) ;
#11 = EDGE_LOOP ( 'NONE', ( #12, #15, #1, #20 ) ) ;
#12 = ORIENTED_EDGE ( 'NONE', *, *, #22, .F. ) ;
#13 = VERTEX_POINT ( 'NONE', #73 ) ;
#14 = CLOSED_SHELL ( 'NONE', ( #3, #46, #8, #43, #6 ) ) ;
#15 = ORIENTED_EDGE ( 'NONE', *, *, #10, .T. ) ;
#16 = EDGE_LOOP ( 'NONE', ( #53, #17, #7 ) ) ;
#17 = ORIENTED_EDGE ( 'NONE', *, *, #18, .T. ) ;
#18 = EDGE_CURVE ( 'NONE', #28, #13, #56, .T. ) ;
#19 = EDGE_CURVE ( 'NONE', #2, #13, #104, .T. ) ;
#20 = ORIENTED_EDGE ( 'NONE', *, *, #31, .F. ) ;
#21 = EDGE_LOOP ( 'NONE', ( #52, #23, #9 ) ) ;
#22 = EDGE_CURVE ( 'NONE', #13, #44, #114, .T. ) ;
#23 = ORIENTED_EDGE ( 'NONE', *, *, #33, .T. ) ;
#24 = EDGE_LOOP ( 'NONE', ( #4, #25, #38, #32 ) ) ;
#25 = ORIENTED_EDGE ( 'NONE', *, *, #22, .T. ) ;
#26 = CARTESIAN_POINT ( 'NONE',  ( 0.0000000000000000000, 6.049555387882544200E-016, -1.490000000000000000 ) ) ;
#27 = AXIS2_PLACEMENT_3D ( 'NONE', #26, #42, #41 ) ;
#28 = VERTEX_POINT ( 'NONE', #139 ) ;
#29 = FACE_OUTER_BOUND ( 'NONE', #24, .T. ) ;
#30 = CARTESIAN_POINT ( 'NONE',  ( 0.0000000000000000000, 6.349999999999989900, 0.5088907968511733300 ) ) ;
#31 = EDGE_CURVE ( 'NONE', #44, #37, #109, .T. ) ;
#32 = ORIENTED_EDGE ( 'NONE', *, *, #47, .F. ) ;
#33 = EDGE_CURVE ( 'NONE', #28, #2, #118, .T. ) ;
#34 = APPROVAL_ROLE ( '' ) ;
#35 = APPROVAL ( #36, 'UNSPECIFIED' ) ;
#36 = APPROVAL_STATUS ( 'not_yet_approved' ) ;
#37 = VERTEX_POINT ( 'NONE', #102 ) ;
#38 = ORIENTED_EDGE ( 'NONE', *, *, #5, .F. ) ;
#39 = EDGE_LOOP ( 'NONE', ( #40, #48 ) ) ;
#40 = ORIENTED_EDGE ( 'NONE', *, *, #5, .T. ) ;
#41 = DIRECTION ( 'NONE',  ( 0.0000000000000000000, 1.000000000000000000, 3.073328992872297400E-016 ) ) ;
#42 = DIRECTION ( 'NONE',  ( 0.0000000000000000000, 3.061515884555943100E-016, -1.000000000000000000 ) ) ;
#43 = ADVANCED_FACE ( 'NONE', ( #137 ), #136, .T. ) ;
#44 = VERTEX_POINT ( 'NONE', #125 ) ;
#45 = MANIFOLD_SOLID_BREP ( 'NONE', #14 ) ;
#46 = ADVANCED_FACE ( 'NONE', ( #121 ), #132, .T. ) ;
#47 = EDGE_CURVE ( 'NONE', #2, #37, #153, .T. ) ;
#48 = ORIENTED_EDGE ( 'NONE', *, *, #31, .T. ) ;
#49 = CYLINDRICAL_SURFACE ( 'NONE', #27, 6.349999999999997000 ) ;
#50 = PERSON_AND_ORGANIZATION ( #179, #148 ) ;
#51 = PRODUCT_DEFINITION_FORMATION_WITH_SPECIFIED_SOURCE ( 'ANY', '', #180, .NOT_KNOWN. ) ;
#52 = ORIENTED_EDGE ( 'NONE', *, *, #18, .F. ) ;
#53 = ORIENTED_EDGE ( 'NONE', *, *, #33, .F. ) ;
#54 = DIRECTION ( 'NONE',  ( 0.0000000000000000000, 3.061515884555943100E-016, -1.000000000000000000 ) ) ;
#55 = AXIS2_PLACEMENT_3D ( 'NONE', #83, #82, #81 ) ;
#56 = CIRCLE ( 'NONE', #55, 21.04000000000018400 ) ;
#57 = APPROVAL_PERSON_ORGANIZATION ( #50, #35, #34 ) ;
#58 = DIRECTION ( 'NONE',  ( 0.0000000000000000000, 3.061515884555943100E-016, -1.000000000000000000 ) ) ;
#59 = AXIS2_PLACEMENT_3D ( 'NONE', #71, #58, #74 ) ;
#60 = FACE_OUTER_BOUND ( 'NONE', #11, .T. ) ;
#61 = DIRECTION ( 'NONE',  ( 0.0000000000000000000, 1.000000000000000000, 3.073328992872298300E-016 ) ) ;
#62 = DIRECTION ( 'NONE',  ( 0.0000000000000000000, 3.061515884555943100E-016, -1.000000000000000000 ) ) ;
#63 = DIRECTION ( 'NONE',  ( 0.0000000000000000000, 3.061515884555943100E-016, -1.000000000000000000 ) ) ;
#64 = CYLINDRICAL_SURFACE ( 'NONE', #76, 6.349999999999997000 ) ;
#65 = AXIS2_PLACEMENT_3D ( 'NONE', #69, #63, #72 ) ;
#66 = CARTESIAN_POINT ( 'NONE',  ( 0.0000000000000000000, -7.008053817000460000E-018, 0.5088907968511715600 ) ) ;
#67 = AXIS2_PLACEMENT_3D ( 'NONE', #66, #62, #61 ) ;
#68 = CIRCLE ( 'NONE', #67, 6.349999999999995200 ) ;
#69 = CARTESIAN_POINT ( 'NONE',  ( 0.0000000000000000000, 6.049555387882550100E-016, -1.490000000000002000 ) ) ;
#70 = FACE_OUTER_BOUND ( 'NONE', #39, .T. ) ;
#71 = CARTESIAN_POINT ( 'NONE',  ( 0.0000000000000000000, 6.049555387882547100E-016, -1.490000000000000900 ) ) ;
#72 = DIRECTION ( 'NONE',  ( 0.0000000000000000000, 1.000000000000000000, 3.073328992872296900E-016 ) ) ;
#73 = CARTESIAN_POINT ( 'NONE',  ( 7.776250346772082600E-016, -6.349999999999993400, 0.5088907968511696700 ) ) ;
#74 = DIRECTION ( 'NONE',  ( 0.0000000000000000000, 1.000000000000000000, 3.061515884555943100E-016 ) ) ;
#75 = DIRECTION ( 'NONE',  ( 0.0000000000000000000, 1.000000000000000000, 3.073328992872297400E-016 ) ) ;
#76 = AXIS2_PLACEMENT_3D ( 'NONE', #85, #54, #75 ) ;
#77 = PLANE ( 'NONE',  #59 ) ;
#78 = CALENDAR_DATE ( 2009, 14, 9 ) ;
#79 = LOCAL_TIME ( 16, 51, 38.00000000000000000, #80 ) ;
#80 = COORDINATED_UNIVERSAL_TIME_OFFSET ( 5, 0, .BEHIND. ) ;
#81 = DIRECTION ( 'NONE',  ( -1.224606353822377300E-016, 1.000000000000000000, 0.0000000000000000000 ) ) ;
#82 = DIRECTION ( 'NONE',  ( 1.000000000000000000, 1.224606353822377300E-016, 3.749151804555343600E-032 ) ) ;
#83 = CARTESIAN_POINT ( 'NONE',  ( 0.0000000000000000000, 2.269195573632860900E-015, -19.55000000000017800 ) ) ;
#84 = CIRCLE ( 'NONE', #65, 6.349999999999998800 ) ;
#85 = CARTESIAN_POINT ( 'NONE',  ( 0.0000000000000000000, 6.049555387882544200E-016, -1.490000000000000000 ) ) ;
#86 = PERSON_AND_ORGANIZATION_ROLE ( 'creator' ) ;
#87 = APPROVAL_DATE_TIME ( #92, #35 ) ;
#88 = CC_DESIGN_PERSON_AND_ORGANIZATION_ASSIGNMENT ( #100, #97, ( #51 ) ) ;
#89 = CC_DESIGN_PERSON_AND_ORGANIZATION_ASSIGNMENT ( #101, #86, ( #51 ) ) ;
#90 = LOCAL_TIME ( 16, 51, 38.00000000000000000, #98 ) ;
#91 = CC_DESIGN_APPROVAL ( #35, ( #51 ) ) ;
#92 = DATE_AND_TIME ( #78, #79 ) ;
#93 = PERSON_AND_ORGANIZATION_ROLE ( 'classification_officer' ) ;
#94 = PERSON_AND_ORGANIZATION ( #179, #148 ) ;
#95 = SECURITY_CLASSIFICATION_LEVEL ( 'unclassified' ) ;
#96 = SECURITY_CLASSIFICATION ( '', '', #95 ) ;
#97 = PERSON_AND_ORGANIZATION_ROLE ( 'design_supplier' ) ;
#98 = COORDINATED_UNIVERSAL_TIME_OFFSET ( 5, 0, .BEHIND. ) ;
#99 = CC_DESIGN_PERSON_AND_ORGANIZATION_ASSIGNMENT ( #94, #93, ( #96 ) ) ;
#100 = PERSON_AND_ORGANIZATION ( #179, #148 ) ;
#101 = PERSON_AND_ORGANIZATION ( #179, #148 ) ;
#102 = CARTESIAN_POINT ( 'NONE',  ( 0.0000000000000000000, 6.349999999999999600, -1.490000000000000000 ) ) ;
#103 = DIRECTION ( 'NONE',  ( 0.0000000000000000000, 1.000000000000000000, 3.073328992872296900E-016 ) ) ;
#104 = CIRCLE ( 'NONE', #138, 6.349999999999995200 ) ;
#105 = DIRECTION ( 'NONE',  ( 0.0000000000000000000, 1.000000000000000000, 3.073328992872298300E-016 ) ) ;
#106 = DIRECTION ( 'NONE',  ( 0.0000000000000000000, 3.061515884555943100E-016, -1.000000000000000000 ) ) ;
#107 = CARTESIAN_POINT ( 'NONE',  ( 0.0000000000000000000, 6.049555387882550100E-016, -1.490000000000002000 ) ) ;
#108 = AXIS2_PLACEMENT_3D ( 'NONE', #107, #106, #103 ) ;
#109 = CIRCLE ( 'NONE', #108, 6.349999999999998800 ) ;
#110 = CARTESIAN_POINT ( 'NONE',  ( 0.0000000000000000000, 2.269195573632860900E-015, -19.55000000000017800 ) ) ;
#111 = DIRECTION ( 'NONE',  ( 0.0000000000000000000, 3.061515884555943100E-016, -1.000000000000000000 ) ) ;
#112 = VECTOR ( 'NONE', #111, 1000.000000000000000 ) ;
#113 = CARTESIAN_POINT ( 'NONE',  ( 7.776250346772092400E-016, -6.349999999999996100, -1.490000000000002000 ) ) ;
#114 = LINE ( 'NONE', #113, #112 ) ;
#115 = DIRECTION ( 'NONE',  ( 0.0000000000000000000, 0.0000000000000000000, 1.000000000000000000 ) ) ;
#116 = DIRECTION ( 'NONE',  ( -1.000000000000000000, 0.0000000000000000000, 0.0000000000000000000 ) ) ;
#117 = AXIS2_PLACEMENT_3D ( 'NONE', #110, #116, #115 ) ;
#118 = CIRCLE ( 'NONE', #117, 21.04000000000018400 ) ;
#119 = DIRECTION ( 'NONE',  ( 0.0000000000000000000, 3.061515884555943100E-016, -1.000000000000000000 ) ) ;
#120 = CARTESIAN_POINT ( 'NONE',  ( 0.0000000000000000000, -7.008053817000460000E-018, 0.5088907968511715600 ) ) ;
#121 = FACE_OUTER_BOUND ( 'NONE', #16, .T. ) ;
#122 = DIRECTION ( 'NONE',  ( 0.0000000000000000000, 1.000000000000000000, 3.297953376381733800E-016 ) ) ;
#123 = DIRECTION ( 'NONE',  ( 1.000000000000000000, 0.0000000000000000000, 0.0000000000000000000 ) ) ;
#124 = AXIS2_PLACEMENT_3D ( 'NONE', #135, #123, #122 ) ;
#125 = CARTESIAN_POINT ( 'NONE',  ( 7.776250346772094400E-016, -6.349999999999997900, -1.490000000000004000 ) ) ;
#126 = CC_DESIGN_DATE_AND_TIME_ASSIGNMENT ( #133, #127, ( #96 ) ) ;
#127 = DATE_TIME_ROLE ( 'classification_date' ) ;
#128 = DIRECTION ( 'NONE',  ( 0.0000000000000000000, 1.000000000000000000, 3.297953376381733800E-016 ) ) ;
#129 = DIRECTION ( 'NONE',  ( 1.000000000000000000, 0.0000000000000000000, 0.0000000000000000000 ) ) ;
#130 = CARTESIAN_POINT ( 'NONE',  ( 0.0000000000000000000, 2.269195573632860900E-015, -19.55000000000017800 ) ) ;
#131 = AXIS2_PLACEMENT_3D ( 'NONE', #130, #129, #128 ) ;
#132 = SPHERICAL_SURFACE ( 'NONE', #131, 21.04000000000018400 ) ;
#133 = DATE_AND_TIME ( #134, #90 ) ;
#134 = CALENDAR_DATE ( 2009, 14, 9 ) ;
#135 = CARTESIAN_POINT ( 'NONE',  ( 0.0000000000000000000, 2.269195573632860900E-015, -19.55000000000017800 ) ) ;
#136 = SPHERICAL_SURFACE ( 'NONE', #124, 21.04000000000018400 ) ;
#137 = FACE_OUTER_BOUND ( 'NONE', #21, .T. ) ;
#138 = AXIS2_PLACEMENT_3D ( 'NONE', #120, #119, #105 ) ;
#139 = CARTESIAN_POINT ( 'NONE',  ( 0.0000000000000000000, -2.883947963251747600E-015, 1.490000000000005100 ) ) ;
#140 = UNCERTAINTY_MEASURE_WITH_UNIT (LENGTH_MEASURE( 1.000000000000000100E-005 ), #186, 'distance_accuracy_value', 'NONE');
#141 = CC_DESIGN_PERSON_AND_ORGANIZATION_ASSIGNMENT ( #147, #149, ( #180 ) ) ;
#142 =( GEOMETRIC_REPRESENTATION_CONTEXT ( 3 ) GLOBAL_UNCERTAINTY_ASSIGNED_CONTEXT ( ( #140 ) ) GLOBAL_UNIT_ASSIGNED_CONTEXT ( ( #186, #185, #150 ) ) REPRESENTATION_CONTEXT ( 'NONE', 'WORKASPACE' ) );
#143 = COORDINATED_UNIVERSAL_TIME_OFFSET ( 5, 0, .BEHIND. ) ;
#144 = CC_DESIGN_PERSON_AND_ORGANIZATION_ASSIGNMENT ( #146, #145, ( #168 ) ) ;
#145 = PERSON_AND_ORGANIZATION_ROLE ( 'creator' ) ;
#146 = PERSON_AND_ORGANIZATION ( #179, #148 ) ;
#147 = PERSON_AND_ORGANIZATION ( #179, #148 ) ;
#148 = ORGANIZATION ( 'UNSPECIFIED', 'UNSPECIFIED', '' ) ;
#149 = PERSON_AND_ORGANIZATION_ROLE ( 'design_owner' ) ;
#150 =( NAMED_UNIT ( * ) SI_UNIT ( $, .STERADIAN. ) SOLID_ANGLE_UNIT ( ) );
#151 = DIRECTION ( 'NONE',  ( 1.000000000000000000, 0.0000000000000000000, 0.0000000000000000000 ) ) ;
#152 = DIRECTION ( 'NONE',  ( 0.0000000000000000000, 0.0000000000000000000, 1.000000000000000000 ) ) ;
#153 = LINE ( 'NONE', #167, #171 ) ;
#154 = DIRECTION ( 'NONE',  ( 0.0000000000000000000, 3.061515884555943100E-016, -1.000000000000000000 ) ) ;
#155 = APPROVAL_PERSON_ORGANIZATION ( #159, #157, #156 ) ;
#156 = APPROVAL_ROLE ( '' ) ;
#157 = APPROVAL ( #158, 'UNSPECIFIED' ) ;
#158 = APPROVAL_STATUS ( 'not_yet_approved' ) ;
#159 = PERSON_AND_ORGANIZATION ( #179, #148 ) ;
#160 = DESIGN_CONTEXT ( 'detailed design', #170, 'design' ) ;
#161 = CC_DESIGN_APPROVAL ( #157, ( #168 ) ) ;
#162 = APPROVAL_DATE_TIME ( #163, #157 ) ;
#163 = DATE_AND_TIME ( #164, #165 ) ;
#164 = CALENDAR_DATE ( 2009, 14, 9 ) ;
#165 = LOCAL_TIME ( 16, 51, 38.00000000000000000, #166 ) ;
#166 = COORDINATED_UNIVERSAL_TIME_OFFSET ( 5, 0, .BEHIND. ) ;
#167 = CARTESIAN_POINT ( 'NONE',  ( 0.0000000000000000000, 6.349999999999997900, -1.489999999999998000 ) ) ;
#168 = PRODUCT_DEFINITION ( 'UNKNOWN', '', #51, #160 ) ;
#169 = APPLICATION_PROTOCOL_DEFINITION ( 'international standard', 'config_control_design', 1994, #170 ) ;
#170 = APPLICATION_CONTEXT ( 'configuration controlled 3d designs of mechanical parts and assemblies' ) ;
#171 = VECTOR ( 'NONE', #154, 1000.000000000000000 ) ;
#172 = AXIS2_PLACEMENT_3D ( 'NONE', #184, #152, #151 ) ;
#173 = CC_DESIGN_DATE_AND_TIME_ASSIGNMENT ( #175, #174, ( #168 ) ) ;
#174 = DATE_TIME_ROLE ( 'creation_date' ) ;
#175 = DATE_AND_TIME ( #176, #177 ) ;
#176 = CALENDAR_DATE ( 2009, 14, 9 ) ;
#177 = LOCAL_TIME ( 16, 51, 38.00000000000000000, #143 ) ;
#178 = ADVANCED_BREP_SHAPE_REPRESENTATION ( '20193-E0W', ( #45, #172 ), #142 ) ;
#179 = PERSON ( 'UNSPECIFIED', 'UNSPECIFIED', 'UNSPECIFIED', ('UNSPECIFIED'), ('UNSPECIFIED'), ('UNSPECIFIED') ) ;
#180 = PRODUCT ( '20193-E0W', '20193-E0W', '', ( #181 ) ) ;
#181 = MECHANICAL_CONTEXT ( 'NONE', #183, 'mechanical' ) ;
#182 = APPLICATION_PROTOCOL_DEFINITION ( 'international standard', 'config_control_design', 1994, #183 ) ;
#183 = APPLICATION_CONTEXT ( 'configuration controlled 3d designs of mechanical parts and assemblies' ) ;
#184 = CARTESIAN_POINT ( 'NONE',  ( 0.0000000000000000000, 0.0000000000000000000, 0.0000000000000000000 ) ) ;
#185 =( NAMED_UNIT ( * ) PLANE_ANGLE_UNIT ( ) SI_UNIT ( $, .RADIAN. ) );
#186 =( LENGTH_UNIT ( ) NAMED_UNIT ( * ) SI_UNIT ( .MILLI., .METRE. ) );
#187 = SHAPE_DEFINITION_REPRESENTATION ( #189, #178 ) ;
#188 = APPROVAL_STATUS ( 'not_yet_approved' ) ;
#189 = PRODUCT_DEFINITION_SHAPE ( 'NONE', 'NONE',  #168 ) ;
#190 = APPROVAL_ROLE ( '' ) ;
#191 = APPROVAL_PERSON_ORGANIZATION ( #197, #192, #190 ) ;
#192 = APPROVAL ( #188, 'UNSPECIFIED' ) ;
#193 = LOCAL_TIME ( 16, 51, 38.00000000000000000, #194 ) ;
#194 = COORDINATED_UNIVERSAL_TIME_OFFSET ( 5, 0, .BEHIND. ) ;
#195 = DATE_AND_TIME ( #196, #193 ) ;
#196 = CALENDAR_DATE ( 2009, 14, 9 ) ;
#197 = PERSON_AND_ORGANIZATION ( #179, #148 ) ;
#198 = CC_DESIGN_APPROVAL ( #192, ( #96 ) ) ;
#199 = APPROVAL_DATE_TIME ( #195, #192 ) ;
#200 = CC_DESIGN_SECURITY_CLASSIFICATION ( #96, ( #51 ) ) ;
#201 = PRODUCT_RELATED_PRODUCT_CATEGORY ( 'detail', '', ( #180 ) ) ;
ENDSEC;
END-ISO-10303-21;
