ISO-10303-21;
HEADER;
FILE_DESCRIPTION (( 'STEP AP214' ),
    '1' );
FILE_NAME ('4804-E0W.STEP',
    '2009-12-21T17:14:57',
    ( ' ' ),
    ( ' ' ),
    'SwSTEP 2.0',
    'SolidWorks 2009',
    '' );
FILE_SCHEMA (( 'AUTOMOTIVE_DESIGN' ));
ENDSEC;

DATA;
#1 = EDGE_LOOP ( 'NONE', ( #5, #8, #6, #26 ) ) ;
#2 = EDGE_CURVE ( 'NONE', #28, #73, #72, .T. ) ;
#3 = ORIENTED_EDGE ( 'NONE', *, *, #75, .T. ) ;
#4 = ADVANCED_FACE ( 'NONE', ( #38 ), #31, .F. ) ;
#5 = ORIENTED_EDGE ( 'NONE', *, *, #25, .F. ) ;
#6 = ORIENTED_EDGE ( 'NONE', *, *, #45, .T. ) ;
#7 = EDGE_CURVE ( 'NONE', #37, #28, #99, .T. ) ;
#8 = ORIENTED_EDGE ( 'NONE', *, *, #18, .T. ) ;
#9 = ORIENTED_EDGE ( 'NONE', *, *, #15, .T. ) ;
#10 = EDGE_LOOP ( 'NONE', ( #12, #9, #35, #44, #80 ) ) ;
#11 = EDGE_LOOP ( 'NONE', ( #13, #14 ) ) ;
#12 = ORIENTED_EDGE ( 'NONE', *, *, #36, .F. ) ;
#13 = ORIENTED_EDGE ( 'NONE', *, *, #79, .F. ) ;
#14 = ORIENTED_EDGE ( 'NONE', *, *, #15, .F. ) ;
#15 = EDGE_CURVE ( 'NONE', #50, #78, #90, .T. ) ;
#16 = ADVANCED_FACE ( 'NONE', ( #91 ), #81, .T. ) ;
#17 = EDGE_LOOP ( 'NONE', ( #22, #19, #29, #3 ) ) ;
#18 = EDGE_CURVE ( 'NONE', #20, #46, #143, .T. ) ;
#19 = ORIENTED_EDGE ( 'NONE', *, *, #25, .T. ) ;
#20 = VERTEX_POINT ( 'NONE', #131 ) ;
#21 = ADVANCED_FACE ( 'NONE', ( #141 ), #139, .F. ) ;
#22 = ORIENTED_EDGE ( 'NONE', *, *, #18, .F. ) ;
#23 = EDGE_CURVE ( 'NONE', #78, #73, #124, .T. ) ;
#24 = ADVANCED_BREP_SHAPE_REPRESENTATION ( '4804-E0W', ( #39, #247 ), #221 ) ;
#25 = EDGE_CURVE ( 'NONE', #20, #28, #83, .T. ) ;
#26 = ORIENTED_EDGE ( 'NONE', *, *, #7, .T. ) ;
#27 = ADVANCED_FACE ( 'NONE', ( #160 ), #157, .F. ) ;
#28 = VERTEX_POINT ( 'NONE', #158 ) ;
#29 = ORIENTED_EDGE ( 'NONE', *, *, #2, .T. ) ;
#30 =( GEOMETRIC_REPRESENTATION_CONTEXT ( 3 ) GLOBAL_UNCERTAINTY_ASSIGNED_CONTEXT ( ( #77 ) ) GLOBAL_UNIT_ASSIGNED_CONTEXT ( ( #41, #47, #76 ) ) REPRESENTATION_CONTEXT ( 'NONE', 'WORKASPACE' ) );
#31 = PLANE ( 'NONE',  #33 ) ;
#32 = CARTESIAN_POINT ( 'NONE',  ( 0.0000000000000000000, 6.429395695523603200E-016, -3.426357320925830700 ) ) ;
#33 = AXIS2_PLACEMENT_3D ( 'NONE', #32, #64, #63 ) ;
#34 = ORIENTED_EDGE ( 'NONE', *, *, #23, .F. ) ;
#35 = ORIENTED_EDGE ( 'NONE', *, *, #23, .T. ) ;
#36 = EDGE_CURVE ( 'NONE', #50, #37, #145, .T. ) ;
#37 = VERTEX_POINT ( 'NONE', #194 ) ;
#38 = FACE_OUTER_BOUND ( 'NONE', #11, .T. ) ;
#39 = MANIFOLD_SOLID_BREP ( 'NONE', #60 ) ;
#40 = ADVANCED_FACE ( 'NONE', ( #181 ), #229, .T. ) ;
#41 =( LENGTH_UNIT ( ) NAMED_UNIT ( * ) SI_UNIT ( .MILLI., .METRE. ) );
#42 = MECHANICAL_DESIGN_GEOMETRIC_PRESENTATION_REPRESENTATION (  '', ( #53 ), #30 ) ;
#43 = PRESENTATION_LAYER_ASSIGNMENT (  '', '', ( #53 ) ) ;
#44 = ORIENTED_EDGE ( 'NONE', *, *, #2, .F. ) ;
#45 = EDGE_CURVE ( 'NONE', #46, #37, #212, .T. ) ;
#46 = VERTEX_POINT ( 'NONE', #199 ) ;
#47 =( NAMED_UNIT ( * ) PLANE_ANGLE_UNIT ( ) SI_UNIT ( $, .RADIAN. ) );
#48 = EDGE_LOOP ( 'NONE', ( #49, #51, #74, #52, #34 ) ) ;
#49 = ORIENTED_EDGE ( 'NONE', *, *, #79, .T. ) ;
#50 = VERTEX_POINT ( 'NONE', #198 ) ;
#51 = ORIENTED_EDGE ( 'NONE', *, *, #36, .T. ) ;
#52 = ORIENTED_EDGE ( 'NONE', *, *, #75, .F. ) ;
#53 = STYLED_ITEM ( 'NONE', ( #54 ), #4 ) ;
#54 = PRESENTATION_STYLE_ASSIGNMENT (( #55 ) ) ;
#55 = SURFACE_STYLE_USAGE ( .BOTH. , #56 ) ;
#56 = SURFACE_SIDE_STYLE ('',( #57 ) ) ;
#57 = SURFACE_STYLE_FILL_AREA ( #58 ) ;
#58 = FILL_AREA_STYLE ('',( #59 ) ) ;
#59 = FILL_AREA_STYLE_COLOUR ( '', #67 ) ;
#60 = CLOSED_SHELL ( 'NONE', ( #40, #21, #27, #4, #16 ) ) ;
#61 = STYLED_ITEM ( 'NONE', ( #62 ), #40 ) ;
#62 = PRESENTATION_STYLE_ASSIGNMENT (( #174 ) ) ;
#63 = DIRECTION ( 'NONE',  ( 1.000000000000000000, 0.0000000000000000000, 0.0000000000000000000 ) ) ;
#64 = DIRECTION ( 'NONE',  ( 0.0000000000000000000, -0.0000000000000000000, 1.000000000000000000 ) ) ;
#65 = DIRECTION ( 'NONE',  ( 1.000000000000000000, 0.0000000000000000000, 0.0000000000000000000 ) ) ;
#66 = DIRECTION ( 'NONE',  ( -0.0000000000000000000, -0.0000000000000000000, 1.000000000000000000 ) ) ;
#67 = COLOUR_RGB ( '',0.9568627450980391500, 0.9490196078431372100, 0.9607843137254902200 ) ;
#68 = CARTESIAN_POINT ( 'NONE',  ( 0.0000000000000000000, 0.0000000000000000000, 3.426357320925830200 ) ) ;
#69 = DIRECTION ( 'NONE',  ( 1.000000000000000000, 0.0000000000000000000, 0.0000000000000000000 ) ) ;
#70 = DIRECTION ( 'NONE',  ( -0.0000000000000000000, -0.0000000000000000000, 1.000000000000000000 ) ) ;
#71 = AXIS2_PLACEMENT_3D ( 'NONE', #68, #70, #69 ) ;
#72 = CIRCLE ( 'NONE', #71, 12.69999999999999900 ) ;
#73 = VERTEX_POINT ( 'NONE', #197 ) ;
#74 = ORIENTED_EDGE ( 'NONE', *, *, #45, .F. ) ;
#75 = EDGE_CURVE ( 'NONE', #73, #46, #227, .T. ) ;
#76 =( NAMED_UNIT ( * ) SI_UNIT ( $, .STERADIAN. ) SOLID_ANGLE_UNIT ( ) );
#77 = UNCERTAINTY_MEASURE_WITH_UNIT (LENGTH_MEASURE( 1.000000000000000100E-005 ), #41, 'distance_accuracy_value', 'NONE');
#78 = VERTEX_POINT ( 'NONE', #209 ) ;
#79 = EDGE_CURVE ( 'NONE', #78, #50, #208, .T. ) ;
#80 = ORIENTED_EDGE ( 'NONE', *, *, #7, .F. ) ;
#81 = CYLINDRICAL_SURFACE ( 'NONE', #85, 12.69999999999999900 ) ;
#82 = AXIS2_PLACEMENT_3D ( 'NONE', #120, #161, #152 ) ;
#83 = CIRCLE ( 'NONE', #82, 25.73000000000000400 ) ;
#84 = CARTESIAN_POINT ( 'NONE',  ( 0.0000000000000000000, 0.0000000000000000000, 7.340795949503493600 ) ) ;
#85 = AXIS2_PLACEMENT_3D ( 'NONE', #84, #66, #65 ) ;
#86 =( GEOMETRIC_REPRESENTATION_CONTEXT ( 3 ) GLOBAL_UNCERTAINTY_ASSIGNED_CONTEXT ( ( #107 ) ) GLOBAL_UNIT_ASSIGNED_CONTEXT ( ( #109, #106, #87 ) ) REPRESENTATION_CONTEXT ( 'NONE', 'WORKASPACE' ) );
#87 =( NAMED_UNIT ( * ) SI_UNIT ( $, .STERADIAN. ) SOLID_ANGLE_UNIT ( ) );
#88 = CARTESIAN_POINT ( 'NONE',  ( 0.0000000000000000000, 0.0000000000000000000, -3.426357320925830200 ) ) ;
#89 = AXIS2_PLACEMENT_3D ( 'NONE', #88, #95, #94 ) ;
#90 = CIRCLE ( 'NONE', #89, 12.69999999999999900 ) ;
#91 = FACE_OUTER_BOUND ( 'NONE', #10, .T. ) ;
#92 = FILL_AREA_STYLE_COLOUR ( '', #93 ) ;
#93 = COLOUR_RGB ( '',0.9568627450980391500, 0.9490196078431372100, 0.9607843137254902200 ) ;
#94 = DIRECTION ( 'NONE',  ( 1.000000000000000000, 0.0000000000000000000, 0.0000000000000000000 ) ) ;
#95 = DIRECTION ( 'NONE',  ( -0.0000000000000000000, -0.0000000000000000000, 1.000000000000000000 ) ) ;
#96 = DIRECTION ( 'NONE',  ( 1.000000000000000000, 0.0000000000000000000, 0.0000000000000000000 ) ) ;
#97 = DIRECTION ( 'NONE',  ( -0.0000000000000000000, -0.0000000000000000000, 1.000000000000000000 ) ) ;
#98 = AXIS2_PLACEMENT_3D ( 'NONE', #108, #97, #96 ) ;
#99 = CIRCLE ( 'NONE', #98, 12.69999999999999900 ) ;
#100 = STYLED_ITEM ( 'NONE', ( #101 ), #16 ) ;
#101 = PRESENTATION_STYLE_ASSIGNMENT (( #102 ) ) ;
#102 = SURFACE_STYLE_USAGE ( .BOTH. , #103 ) ;
#103 = SURFACE_SIDE_STYLE ('',( #104 ) ) ;
#104 = SURFACE_STYLE_FILL_AREA ( #105 ) ;
#105 = FILL_AREA_STYLE ('',( #92 ) ) ;
#106 =( NAMED_UNIT ( * ) PLANE_ANGLE_UNIT ( ) SI_UNIT ( $, .RADIAN. ) );
#107 = UNCERTAINTY_MEASURE_WITH_UNIT (LENGTH_MEASURE( 1.000000000000000100E-005 ), #109, 'distance_accuracy_value', 'NONE');
#108 = CARTESIAN_POINT ( 'NONE',  ( 0.0000000000000000000, 0.0000000000000000000, 3.426357320925830200 ) ) ;
#109 =( LENGTH_UNIT ( ) NAMED_UNIT ( * ) SI_UNIT ( .MILLI., .METRE. ) );
#110 = MECHANICAL_DESIGN_GEOMETRIC_PRESENTATION_REPRESENTATION (  '', ( #100 ), #86 ) ;
#111 = PRESENTATION_LAYER_ASSIGNMENT (  '', '', ( #100 ) ) ;
#112 =( LENGTH_UNIT ( ) NAMED_UNIT ( * ) SI_UNIT ( .MILLI., .METRE. ) );
#113 =( GEOMETRIC_REPRESENTATION_CONTEXT ( 3 ) GLOBAL_UNCERTAINTY_ASSIGNED_CONTEXT ( ( #115 ) ) GLOBAL_UNIT_ASSIGNED_CONTEXT ( ( #112, #114, #119 ) ) REPRESENTATION_CONTEXT ( 'NONE', 'WORKASPACE' ) );
#114 =( NAMED_UNIT ( * ) PLANE_ANGLE_UNIT ( ) SI_UNIT ( $, .RADIAN. ) );
#115 = UNCERTAINTY_MEASURE_WITH_UNIT (LENGTH_MEASURE( 1.000000000000000100E-005 ), #112, 'distance_accuracy_value', 'NONE');
#116 = DIRECTION ( 'NONE',  ( 1.000000000000000000, 0.0000000000000000000, 0.0000000000000000000 ) ) ;
#117 = CARTESIAN_POINT ( 'NONE',  ( 0.0000000000000000000, 0.0000000000000000000, 25.80364267907416900 ) ) ;
#118 = AXIS2_PLACEMENT_3D ( 'NONE', #117, #116, #142 ) ;
#119 =( NAMED_UNIT ( * ) SI_UNIT ( $, .STERADIAN. ) SOLID_ANGLE_UNIT ( ) );
#120 = CARTESIAN_POINT ( 'NONE',  ( 0.0000000000000000000, 0.0000000000000000000, 25.80364267907416900 ) ) ;
#121 = DIRECTION ( 'NONE',  ( -0.0000000000000000000, -0.0000000000000000000, 1.000000000000000000 ) ) ;
#122 = VECTOR ( 'NONE', #121, 1000.000000000000000 ) ;
#123 = CARTESIAN_POINT ( 'NONE',  ( 12.69999999999999900, 0.0000000000000000000, 7.340795949503493600 ) ) ;
#124 = LINE ( 'NONE', #123, #122 ) ;
#125 = DIRECTION ( 'NONE',  ( 0.0000000000000000000, 1.000000000000000000, 0.0000000000000000000 ) ) ;
#126 = DIRECTION ( 'NONE',  ( -1.000000000000000000, 0.0000000000000000000, 0.0000000000000000000 ) ) ;
#127 = SURFACE_SIDE_STYLE ('',( #128 ) ) ;
#128 = SURFACE_STYLE_FILL_AREA ( #129 ) ;
#129 = FILL_AREA_STYLE ('',( #130 ) ) ;
#130 = FILL_AREA_STYLE_COLOUR ( '', #140 ) ;
#131 = CARTESIAN_POINT ( 'NONE',  ( 0.0000000000000000000, 1.575456074192488300E-015, 0.07364267907416718900 ) ) ;
#132 = MECHANICAL_DESIGN_GEOMETRIC_PRESENTATION_REPRESENTATION (  '', ( #134 ), #113 ) ;
#133 = PRESENTATION_LAYER_ASSIGNMENT (  '', '', ( #134 ) ) ;
#134 = STYLED_ITEM ( 'NONE', ( #135 ), #21 ) ;
#135 = PRESENTATION_STYLE_ASSIGNMENT (( #136 ) ) ;
#136 = SURFACE_STYLE_USAGE ( .BOTH. , #127 ) ;
#137 = CARTESIAN_POINT ( 'NONE',  ( 0.0000000000000000000, 0.0000000000000000000, 25.80364267907416900 ) ) ;
#138 = AXIS2_PLACEMENT_3D ( 'NONE', #137, #126, #125 ) ;
#139 = SPHERICAL_SURFACE ( 'NONE', #138, 25.73000000000000400 ) ;
#140 = COLOUR_RGB ( '',0.9568627450980391500, 0.9490196078431372100, 0.9607843137254902200 ) ;
#141 = FACE_OUTER_BOUND ( 'NONE', #17, .T. ) ;
#142 = DIRECTION ( 'NONE',  ( 0.0000000000000000000, 0.0000000000000000000, -1.000000000000000000 ) ) ;
#143 = CIRCLE ( 'NONE', #118, 25.73000000000000400 ) ;
#144 = FILL_AREA_STYLE ('',( #156 ) ) ;
#145 = LINE ( 'NONE', #168, #167 ) ;
#146 = PRESENTATION_LAYER_ASSIGNMENT (  '', '', ( #61 ) ) ;
#147 =( NAMED_UNIT ( * ) PLANE_ANGLE_UNIT ( ) SI_UNIT ( $, .RADIAN. ) );
#148 = STYLED_ITEM ( 'NONE', ( #149 ), #27 ) ;
#149 = PRESENTATION_STYLE_ASSIGNMENT (( #150 ) ) ;
#150 = SURFACE_STYLE_USAGE ( .BOTH. , #163 ) ;
#151 =( LENGTH_UNIT ( ) NAMED_UNIT ( * ) SI_UNIT ( .MILLI., .METRE. ) );
#152 = DIRECTION ( 'NONE',  ( -1.224606353822377000E-016, -1.000000000000000000, 0.0000000000000000000 ) ) ;
#153 =( GEOMETRIC_REPRESENTATION_CONTEXT ( 3 ) GLOBAL_UNCERTAINTY_ASSIGNED_CONTEXT ( ( #159 ) ) GLOBAL_UNIT_ASSIGNED_CONTEXT ( ( #151, #147, #169 ) ) REPRESENTATION_CONTEXT ( 'NONE', 'WORKASPACE' ) );
#154 = MECHANICAL_DESIGN_GEOMETRIC_PRESENTATION_REPRESENTATION (  '', ( #148 ), #153 ) ;
#155 = PRESENTATION_LAYER_ASSIGNMENT (  '', '', ( #148 ) ) ;
#156 = FILL_AREA_STYLE_COLOUR ( '', #162 ) ;
#157 = SPHERICAL_SURFACE ( 'NONE', #173, 25.73000000000000400 ) ;
#158 = CARTESIAN_POINT ( 'NONE',  ( -1.555250069354418900E-015, -12.69999999999999900, 3.426357320925826200 ) ) ;
#159 = UNCERTAINTY_MEASURE_WITH_UNIT (LENGTH_MEASURE( 1.000000000000000100E-005 ), #151, 'distance_accuracy_value', 'NONE');
#160 = FACE_OUTER_BOUND ( 'NONE', #1, .T. ) ;
#161 = DIRECTION ( 'NONE',  ( -1.000000000000000000, 1.224606353822377300E-016, 0.0000000000000000000 ) ) ;
#162 = COLOUR_RGB ( '',0.9568627450980391500, 0.9490196078431372100, 0.9607843137254902200 ) ;
#163 = SURFACE_SIDE_STYLE ('',( #164 ) ) ;
#164 = SURFACE_STYLE_FILL_AREA ( #144 ) ;
#165 = MECHANICAL_DESIGN_GEOMETRIC_PRESENTATION_REPRESENTATION (  '', ( #61 ), #206 ) ;
#166 = DIRECTION ( 'NONE',  ( -0.0000000000000000000, -0.0000000000000000000, 1.000000000000000000 ) ) ;
#167 = VECTOR ( 'NONE', #166, 1000.000000000000000 ) ;
#168 = CARTESIAN_POINT ( 'NONE',  ( -12.69999999999999900, 1.555250069354419100E-015, 7.340795949503493600 ) ) ;
#169 =( NAMED_UNIT ( * ) SI_UNIT ( $, .STERADIAN. ) SOLID_ANGLE_UNIT ( ) );
#170 = DIRECTION ( 'NONE',  ( 0.0000000000000000000, 1.000000000000000000, 0.0000000000000000000 ) ) ;
#171 = DIRECTION ( 'NONE',  ( -1.000000000000000000, 0.0000000000000000000, 0.0000000000000000000 ) ) ;
#172 = CARTESIAN_POINT ( 'NONE',  ( 0.0000000000000000000, 0.0000000000000000000, 25.80364267907416900 ) ) ;
#173 = AXIS2_PLACEMENT_3D ( 'NONE', #172, #171, #170 ) ;
#174 = SURFACE_STYLE_USAGE ( .BOTH. , #175 ) ;
#175 = SURFACE_SIDE_STYLE ('',( #176 ) ) ;
#176 = SURFACE_STYLE_FILL_AREA ( #177 ) ;
#177 = FILL_AREA_STYLE ('',( #178 ) ) ;
#178 = FILL_AREA_STYLE_COLOUR ( '', #179 ) ;
#179 = COLOUR_RGB ( '',0.9568627450980391500, 0.9490196078431372100, 0.9607843137254902200 ) ;
#180 = MECHANICAL_DESIGN_GEOMETRIC_PRESENTATION_REPRESENTATION (  '', ( #187 ), #182 ) ;
#181 = FACE_OUTER_BOUND ( 'NONE', #48, .T. ) ;
#182 =( GEOMETRIC_REPRESENTATION_CONTEXT ( 3 ) GLOBAL_UNCERTAINTY_ASSIGNED_CONTEXT ( ( #185 ) ) GLOBAL_UNIT_ASSIGNED_CONTEXT ( ( #190, #186, #196 ) ) REPRESENTATION_CONTEXT ( 'NONE', 'WORKASPACE' ) );
#183 = FILL_AREA_STYLE ('',( #184 ) ) ;
#184 = FILL_AREA_STYLE_COLOUR ( '', #193 ) ;
#185 = UNCERTAINTY_MEASURE_WITH_UNIT (LENGTH_MEASURE( 1.000000000000000100E-005 ), #190, 'distance_accuracy_value', 'NONE');
#186 =( NAMED_UNIT ( * ) PLANE_ANGLE_UNIT ( ) SI_UNIT ( $, .RADIAN. ) );
#187 = STYLED_ITEM ( 'NONE', ( #191 ), #39 ) ;
#188 = SURFACE_SIDE_STYLE ('',( #195 ) ) ;
#189 = SURFACE_STYLE_USAGE ( .BOTH. , #188 ) ;
#190 =( LENGTH_UNIT ( ) NAMED_UNIT ( * ) SI_UNIT ( .MILLI., .METRE. ) );
#191 = PRESENTATION_STYLE_ASSIGNMENT (( #189 ) ) ;
#192 = PRESENTATION_LAYER_ASSIGNMENT (  '', '', ( #187 ) ) ;
#193 = COLOUR_RGB ( '',0.7960784313725489700, 0.8235294117647058400, 0.9372549019607843100 ) ;
#194 = CARTESIAN_POINT ( 'NONE',  ( -12.69999999999999900, 1.555250069354419100E-015, 3.426357320925830200 ) ) ;
#195 = SURFACE_STYLE_FILL_AREA ( #183 ) ;
#196 =( NAMED_UNIT ( * ) SI_UNIT ( $, .STERADIAN. ) SOLID_ANGLE_UNIT ( ) );
#197 = CARTESIAN_POINT ( 'NONE',  ( 12.69999999999999900, 0.0000000000000000000, 3.426357320925830200 ) ) ;
#198 = CARTESIAN_POINT ( 'NONE',  ( -12.69999999999999900, 1.555250069354419100E-015, -3.426357320925830200 ) ) ;
#199 = CARTESIAN_POINT ( 'NONE',  ( 0.0000000000000000000, 12.69999999999999900, 3.426357320925826200 ) ) ;
#200 = DIRECTION ( 'NONE',  ( 1.000000000000000000, 0.0000000000000000000, 0.0000000000000000000 ) ) ;
#201 = UNCERTAINTY_MEASURE_WITH_UNIT (LENGTH_MEASURE( 1.000000000000000100E-005 ), #230, 'distance_accuracy_value', 'NONE');
#202 =( NAMED_UNIT ( * ) SI_UNIT ( $, .STERADIAN. ) SOLID_ANGLE_UNIT ( ) );
#203 =( NAMED_UNIT ( * ) PLANE_ANGLE_UNIT ( ) SI_UNIT ( $, .RADIAN. ) );
#204 =( NAMED_UNIT ( * ) SI_UNIT ( $, .STERADIAN. ) SOLID_ANGLE_UNIT ( ) );
#205 =( NAMED_UNIT ( * ) PLANE_ANGLE_UNIT ( ) SI_UNIT ( $, .RADIAN. ) );
#206 =( GEOMETRIC_REPRESENTATION_CONTEXT ( 3 ) GLOBAL_UNCERTAINTY_ASSIGNED_CONTEXT ( ( #201 ) ) GLOBAL_UNIT_ASSIGNED_CONTEXT ( ( #230, #203, #202 ) ) REPRESENTATION_CONTEXT ( 'NONE', 'WORKASPACE' ) );
#207 = AXIS2_PLACEMENT_3D ( 'NONE', #220, #219, #218 ) ;
#208 = CIRCLE ( 'NONE', #207, 12.69999999999999900 ) ;
#209 = CARTESIAN_POINT ( 'NONE',  ( 12.69999999999999900, 0.0000000000000000000, -3.426357320925830200 ) ) ;
#210 = DIRECTION ( 'NONE',  ( -0.0000000000000000000, -0.0000000000000000000, 1.000000000000000000 ) ) ;
#211 = AXIS2_PLACEMENT_3D ( 'NONE', #213, #210, #200 ) ;
#212 = CIRCLE ( 'NONE', #211, 12.69999999999999900 ) ;
#213 = CARTESIAN_POINT ( 'NONE',  ( 0.0000000000000000000, 0.0000000000000000000, 3.426357320925830200 ) ) ;
#214 = DIRECTION ( 'NONE',  ( 1.000000000000000000, 0.0000000000000000000, 0.0000000000000000000 ) ) ;
#215 = DIRECTION ( 'NONE',  ( -0.0000000000000000000, -0.0000000000000000000, 1.000000000000000000 ) ) ;
#216 = AXIS2_PLACEMENT_3D ( 'NONE', #228, #215, #214 ) ;
#217 =( LENGTH_UNIT ( ) NAMED_UNIT ( * ) SI_UNIT ( .MILLI., .METRE. ) );
#218 = DIRECTION ( 'NONE',  ( 1.000000000000000000, 0.0000000000000000000, 0.0000000000000000000 ) ) ;
#219 = DIRECTION ( 'NONE',  ( -0.0000000000000000000, -0.0000000000000000000, 1.000000000000000000 ) ) ;
#220 = CARTESIAN_POINT ( 'NONE',  ( 0.0000000000000000000, 0.0000000000000000000, -3.426357320925830200 ) ) ;
#221 =( GEOMETRIC_REPRESENTATION_CONTEXT ( 3 ) GLOBAL_UNCERTAINTY_ASSIGNED_CONTEXT ( ( #222 ) ) GLOBAL_UNIT_ASSIGNED_CONTEXT ( ( #217, #205, #204 ) ) REPRESENTATION_CONTEXT ( 'NONE', 'WORKASPACE' ) );
#222 = UNCERTAINTY_MEASURE_WITH_UNIT (LENGTH_MEASURE( 1.000000000000000100E-005 ), #217, 'distance_accuracy_value', 'NONE');
#223 = DIRECTION ( 'NONE',  ( 1.000000000000000000, 0.0000000000000000000, 0.0000000000000000000 ) ) ;
#224 = DIRECTION ( 'NONE',  ( -0.0000000000000000000, -0.0000000000000000000, 1.000000000000000000 ) ) ;
#225 = CARTESIAN_POINT ( 'NONE',  ( 0.0000000000000000000, 0.0000000000000000000, 3.426357320925830200 ) ) ;
#226 = AXIS2_PLACEMENT_3D ( 'NONE', #225, #224, #223 ) ;
#227 = CIRCLE ( 'NONE', #226, 12.69999999999999900 ) ;
#228 = CARTESIAN_POINT ( 'NONE',  ( 0.0000000000000000000, 0.0000000000000000000, 7.340795949503493600 ) ) ;
#229 = CYLINDRICAL_SURFACE ( 'NONE', #216, 12.69999999999999900 ) ;
#230 =( LENGTH_UNIT ( ) NAMED_UNIT ( * ) SI_UNIT ( .MILLI., .METRE. ) );
#231 = STYLED_ITEM ( 'NONE', ( #232 ), #24 ) ;
#232 = PRESENTATION_STYLE_ASSIGNMENT (( #238 ) ) ;
#233 = SURFACE_STYLE_FILL_AREA ( #244 ) ;
#234 =( LENGTH_UNIT ( ) NAMED_UNIT ( * ) SI_UNIT ( .MILLI., .METRE. ) );
#235 = FILL_AREA_STYLE_COLOUR ( '', #236 ) ;
#236 = COLOUR_RGB ( '',0.7960784313725489700, 0.8235294117647058400, 0.9372549019607843100 ) ;
#237 = SURFACE_SIDE_STYLE ('',( #233 ) ) ;
#238 = SURFACE_STYLE_USAGE ( .BOTH. , #237 ) ;
#239 = MECHANICAL_DESIGN_GEOMETRIC_PRESENTATION_REPRESENTATION (  '', ( #231 ), #249 ) ;
#240 = PRESENTATION_LAYER_ASSIGNMENT (  '', '', ( #231 ) ) ;
#241 =( NAMED_UNIT ( * ) PLANE_ANGLE_UNIT ( ) SI_UNIT ( $, .RADIAN. ) );
#242 = UNCERTAINTY_MEASURE_WITH_UNIT (LENGTH_MEASURE( 1.000000000000000100E-005 ), #234, 'distance_accuracy_value', 'NONE');
#243 =( NAMED_UNIT ( * ) SI_UNIT ( $, .STERADIAN. ) SOLID_ANGLE_UNIT ( ) );
#244 = FILL_AREA_STYLE ('',( #235 ) ) ;
#245 = DIRECTION ( 'NONE',  ( 1.000000000000000000, 0.0000000000000000000, 0.0000000000000000000 ) ) ;
#246 = CARTESIAN_POINT ( 'NONE',  ( 0.0000000000000000000, 0.0000000000000000000, 0.0000000000000000000 ) ) ;
#247 = AXIS2_PLACEMENT_3D ( 'NONE', #246, #248, #245 ) ;
#248 = DIRECTION ( 'NONE',  ( 0.0000000000000000000, 0.0000000000000000000, 1.000000000000000000 ) ) ;
#249 =( GEOMETRIC_REPRESENTATION_CONTEXT ( 3 ) GLOBAL_UNCERTAINTY_ASSIGNED_CONTEXT ( ( #242 ) ) GLOBAL_UNIT_ASSIGNED_CONTEXT ( ( #234, #241, #243 ) ) REPRESENTATION_CONTEXT ( 'NONE', 'WORKASPACE' ) );
#250 = PRODUCT_DEFINITION_SHAPE ( 'NONE', 'NONE',  #254 ) ;
#251 = PRODUCT_RELATED_PRODUCT_CATEGORY ( 'part', '', ( #258 ) ) ;
#252 = PRODUCT_DEFINITION_FORMATION_WITH_SPECIFIED_SOURCE ( 'ANY', '', #258, .NOT_KNOWN. ) ;
#253 = APPLICATION_PROTOCOL_DEFINITION ( 'draft international standard', 'automotive_design', 1998, #260 ) ;
#254 = PRODUCT_DEFINITION ( 'UNKNOWN', '', #252, #255 ) ;
#255 = PRODUCT_DEFINITION_CONTEXT ( 'detailed design', #257, 'design' ) ;
#256 = APPLICATION_PROTOCOL_DEFINITION ( 'draft international standard', 'automotive_design', 1998, #257 ) ;
#257 = APPLICATION_CONTEXT ( 'automotive_design' ) ;
#258 = PRODUCT ( '4804-E0W', '4804-E0W', '', ( #259 ) ) ;
#259 = PRODUCT_CONTEXT ( 'NONE', #260, 'mechanical' ) ;
#260 = APPLICATION_CONTEXT ( 'automotive_design' ) ;
#261 = SHAPE_DEFINITION_REPRESENTATION ( #250, #24 ) ;
ENDSEC;
END-ISO-10303-21;
