ISO-10303-21;
HEADER;
FILE_DESCRIPTION (( 'STEP AP203' ),
    '1' );
FILE_NAME ('Web Model 84465.STEP',
    '2017-02-01T15:46:18',
    ( '' ),
    ( '' ),
    'SwSTEP 2.0',
    'SolidWorks 2016',
    '' );
FILE_SCHEMA (( 'CONFIG_CONTROL_DESIGN' ));
ENDSEC;

DATA;
#1 = PRODUCT_DEFINITION_FORMATION_WITH_SPECIFIED_SOURCE ( 'ANY', '', #44, .NOT_KNOWN. ) ;
#2 = ORIENTED_EDGE ( 'NONE', *, *, #18, .T. ) ;
#3 = DATE_AND_TIME ( #40, #108 ) ;
#4 = DIRECTION ( 'NONE',  ( 1.000000000000000000, 0.0000000000000000000, -0.0000000000000000000 ) ) ;
#5 = CC_DESIGN_PERSON_AND_ORGANIZATION_ASSIGNMENT ( #70, #52, ( #128 ) ) ;
#6 = CARTESIAN_POINT ( 'NONE',  ( -12.50000000000000000, 0.0000000000000000000, 0.0000000000000000000 ) ) ;
#7 = DATE_AND_TIME ( #39, #69 ) ;
#8 =( NAMED_UNIT ( * ) SI_UNIT ( $, .STERADIAN. ) SOLID_ANGLE_UNIT ( ) );
#9 = DIRECTION ( 'NONE',  ( 0.0000000000000000000, 0.0000000000000000000, 1.000000000000000000 ) ) ;
#10 = ORIENTED_EDGE ( 'NONE', *, *, #123, .T. ) ;
#11 = APPROVAL_STATUS ( 'not_yet_approved' ) ;
#12 = CC_DESIGN_DATE_AND_TIME_ASSIGNMENT ( #7, #48, ( #128 ) ) ;
#13 = CC_DESIGN_PERSON_AND_ORGANIZATION_ASSIGNMENT ( #31, #163, ( #1 ) ) ;
#14 = AXIS2_PLACEMENT_3D ( 'NONE', #160, #145, #51 ) ;
#15 = CLOSED_SHELL ( 'NONE', ( #21, #57, #124, #20 ) ) ;
#16 = ADVANCED_BREP_SHAPE_REPRESENTATION ( 'Web Model 84465', ( #66, #28 ), #166 ) ;
#17 = CARTESIAN_POINT ( 'NONE',  ( 0.0000000000000000000, 0.0000000000000000000, 3.000000000000000000 ) ) ;
#18 = EDGE_CURVE ( 'NONE', #130, #151, #41, .T. ) ;
#19 = DATE_AND_TIME ( #122, #24 ) ;
#20 = ADVANCED_FACE ( 'NONE', ( #142 ), #109, .F. ) ;
#21 = ADVANCED_FACE ( 'NONE', ( #99 ), #120, .T. ) ;
#22 = CARTESIAN_POINT ( 'NONE',  ( 12.50000000000000000, 1.530808498934191500E-015, 0.0000000000000000000 ) ) ;
#23 = CARTESIAN_POINT ( 'NONE',  ( 0.0000000000000000000, 0.0000000000000000000, 0.0000000000000000000 ) ) ;
#24 = LOCAL_TIME ( 10, 46, 18.00000000000000000, #168 ) ;
#25 = APPROVAL_ROLE ( '' ) ;
#26 = EDGE_CURVE ( 'NONE', #134, #68, #75, .T. ) ;
#27 = APPROVAL_PERSON_ORGANIZATION ( #64, #117, #25 ) ;
#28 = AXIS2_PLACEMENT_3D ( 'NONE', #143, #159, #79 ) ;
#29 = APPROVAL ( #62, 'UNSPECIFIED' ) ;
#30 = ORIENTED_EDGE ( 'NONE', *, *, #26, .T. ) ;
#31 = PERSON_AND_ORGANIZATION ( #92, #88 ) ;
#32 = DIRECTION ( 'NONE',  ( -0.0000000000000000000, -0.0000000000000000000, -1.000000000000000000 ) ) ;
#33 = COORDINATED_UNIVERSAL_TIME_OFFSET ( 5, 0, .BEHIND. ) ;
#34 = DESIGN_CONTEXT ( 'detailed design', #161, 'design' ) ;
#35 = CYLINDRICAL_SURFACE ( 'NONE', #46, 12.50000000000000000 ) ;
#36 = DATE_AND_TIME ( #77, #97 ) ;
#37 = CC_DESIGN_APPROVAL ( #29, ( #1 ) ) ;
#38 = DIRECTION ( 'NONE',  ( 0.0000000000000000000, 0.0000000000000000000, 1.000000000000000000 ) ) ;
#39 = CALENDAR_DATE ( 2017, 1, 2 ) ;
#40 = CALENDAR_DATE ( 2017, 1, 2 ) ;
#41 = LINE ( 'NONE', #76, #71 ) ;
#42 = CC_DESIGN_PERSON_AND_ORGANIZATION_ASSIGNMENT ( #171, #174, ( #129 ) ) ;
#43 = DIRECTION ( 'NONE',  ( -0.0000000000000000000, -0.0000000000000000000, -1.000000000000000000 ) ) ;
#44 = PRODUCT ( 'Web Model 84465', 'Web Model 84465', '', ( #98 ) ) ;
#45 = CIRCLE ( 'NONE', #89, 12.50000000000000000 ) ;
#46 = AXIS2_PLACEMENT_3D ( 'NONE', #73, #32, #136 ) ;
#47 = ORIENTED_EDGE ( 'NONE', *, *, #132, .T. ) ;
#48 = DATE_TIME_ROLE ( 'creation_date' ) ;
#49 = CIRCLE ( 'NONE', #154, 12.50000000000000000 ) ;
#50 = APPLICATION_PROTOCOL_DEFINITION ( 'international standard', 'config_control_design', 1994, #125 ) ;
#51 = DIRECTION ( 'NONE',  ( 1.000000000000000000, 0.0000000000000000000, -0.0000000000000000000 ) ) ;
#52 = PERSON_AND_ORGANIZATION_ROLE ( 'creator' ) ;
#53 = PRODUCT_RELATED_PRODUCT_CATEGORY ( 'detail', '', ( #44 ) ) ;
#54 = EDGE_LOOP ( 'NONE', ( #156, #72 ) ) ;
#55 = PERSON_AND_ORGANIZATION ( #92, #88 ) ;
#56 = FACE_OUTER_BOUND ( 'NONE', #54, .T. ) ;
#57 = ADVANCED_FACE ( 'NONE', ( #158 ), #35, .T. ) ;
#58 = APPROVAL_STATUS ( 'not_yet_approved' ) ;
#59 = APPROVAL_ROLE ( '' ) ;
#60 = ORIENTED_EDGE ( 'NONE', *, *, #94, .F. ) ;
#61 = PLANE ( 'NONE',  #14 ) ;
#62 = APPROVAL_STATUS ( 'not_yet_approved' ) ;
#63 = CARTESIAN_POINT ( 'NONE',  ( 0.0000000000000000000, 0.0000000000000000000, 0.0000000000000000000 ) ) ;
#64 = PERSON_AND_ORGANIZATION ( #92, #88 ) ;
#65 = PERSON_AND_ORGANIZATION_ROLE ( 'creator' ) ;
#66 = MANIFOLD_SOLID_BREP ( 'Extrude1', #15 ) ;
#67 = CC_DESIGN_PERSON_AND_ORGANIZATION_ASSIGNMENT ( #55, #146, ( #44 ) ) ;
#68 = VERTEX_POINT ( 'NONE', #6 ) ;
#69 = LOCAL_TIME ( 10, 46, 18.00000000000000000, #33 ) ;
#70 = PERSON_AND_ORGANIZATION ( #92, #88 ) ;
#71 = VECTOR ( 'NONE', #121, 1000.000000000000000 ) ;
#72 = ORIENTED_EDGE ( 'NONE', *, *, #113, .T. ) ;
#73 = CARTESIAN_POINT ( 'NONE',  ( 0.0000000000000000000, 0.0000000000000000000, 3.000000000000000000 ) ) ;
#74 = DIRECTION ( 'NONE',  ( -1.000000000000000000, 0.0000000000000000000, 0.0000000000000000000 ) ) ;
#75 = LINE ( 'NONE', #167, #112 ) ;
#76 = CARTESIAN_POINT ( 'NONE',  ( 12.50000000000000000, 1.530808498934191500E-015, 3.000000000000000000 ) ) ;
#77 = CALENDAR_DATE ( 2017, 1, 2 ) ;
#78 = CC_DESIGN_SECURITY_CLASSIFICATION ( #129, ( #1 ) ) ;
#79 = DIRECTION ( 'NONE',  ( 1.000000000000000000, 0.0000000000000000000, 0.0000000000000000000 ) ) ;
#80 = SECURITY_CLASSIFICATION_LEVEL ( 'unclassified' ) ;
#81 = EDGE_LOOP ( 'NONE', ( #140, #83 ) ) ;
#82 = ORIENTED_EDGE ( 'NONE', *, *, #26, .F. ) ;
#83 = ORIENTED_EDGE ( 'NONE', *, *, #123, .F. ) ;
#84 = CALENDAR_DATE ( 2017, 1, 2 ) ;
#85 = PRODUCT_DEFINITION_SHAPE ( 'NONE', 'NONE',  #128 ) ;
#86 = DIRECTION ( 'NONE',  ( 1.000000000000000000, 0.0000000000000000000, 0.0000000000000000000 ) ) ;
#87 = DIRECTION ( 'NONE',  ( 0.0000000000000000000, 0.0000000000000000000, 1.000000000000000000 ) ) ;
#88 = ORGANIZATION ( 'UNSPECIFIED', 'UNSPECIFIED', '' ) ;
#89 = AXIS2_PLACEMENT_3D ( 'NONE', #139, #127, #111 ) ;
#90 =( LENGTH_UNIT ( ) NAMED_UNIT ( * ) SI_UNIT ( .MILLI., .METRE. ) );
#91 = CIRCLE ( 'NONE', #165, 12.50000000000000000 ) ;
#92 = PERSON ( 'UNSPECIFIED', 'UNSPECIFIED', 'UNSPECIFIED', ('UNSPECIFIED'), ('UNSPECIFIED'), ('UNSPECIFIED') ) ;
#93 = DIRECTION ( 'NONE',  ( -0.0000000000000000000, -0.0000000000000000000, -1.000000000000000000 ) ) ;
#94 = EDGE_CURVE ( 'NONE', #134, #130, #45, .T. ) ;
#95 = DATE_AND_TIME ( #84, #118 ) ;
#96 = EDGE_LOOP ( 'NONE', ( #147, #2, #10, #82 ) ) ;
#97 = LOCAL_TIME ( 10, 46, 18.00000000000000000, #103 ) ;
#98 = MECHANICAL_CONTEXT ( 'NONE', #125, 'mechanical' ) ;
#99 = FACE_OUTER_BOUND ( 'NONE', #96, .T. ) ;
#100 = CARTESIAN_POINT ( 'NONE',  ( -12.50000000000000000, 0.0000000000000000000, 3.000000000000000000 ) ) ;
#101 = APPROVAL_ROLE ( '' ) ;
#102 = DATE_TIME_ROLE ( 'classification_date' ) ;
#103 = COORDINATED_UNIVERSAL_TIME_OFFSET ( 5, 0, .BEHIND. ) ;
#104 = COORDINATED_UNIVERSAL_TIME_OFFSET ( 5, 0, .BEHIND. ) ;
#105 = AXIS2_PLACEMENT_3D ( 'NONE', #126, #9, #173 ) ;
#106 = UNCERTAINTY_MEASURE_WITH_UNIT (LENGTH_MEASURE( 1.000000000000000100E-005 ), #90, 'distance_accuracy_value', 'NONE');
#107 = PERSON_AND_ORGANIZATION ( #92, #88 ) ;
#108 = LOCAL_TIME ( 10, 46, 18.00000000000000000, #104 ) ;
#109 = PLANE ( 'NONE',  #114 ) ;
#110 = ORIENTED_EDGE ( 'NONE', *, *, #18, .F. ) ;
#111 = DIRECTION ( 'NONE',  ( 1.000000000000000000, 0.0000000000000000000, 0.0000000000000000000 ) ) ;
#112 = VECTOR ( 'NONE', #93, 1000.000000000000000 ) ;
#113 = EDGE_CURVE ( 'NONE', #130, #134, #115, .T. ) ;
#114 = AXIS2_PLACEMENT_3D ( 'NONE', #138, #119, #4 ) ;
#115 = CIRCLE ( 'NONE', #105, 12.50000000000000000 ) ;
#116 = PERSON_AND_ORGANIZATION ( #92, #88 ) ;
#117 = APPROVAL ( #58, 'UNSPECIFIED' ) ;
#118 = LOCAL_TIME ( 10, 46, 18.00000000000000000, #133 ) ;
#119 = DIRECTION ( 'NONE',  ( 0.0000000000000000000, 0.0000000000000000000, 1.000000000000000000 ) ) ;
#120 = CYLINDRICAL_SURFACE ( 'NONE', #144, 12.50000000000000000 ) ;
#121 = DIRECTION ( 'NONE',  ( -0.0000000000000000000, -0.0000000000000000000, -1.000000000000000000 ) ) ;
#122 = CALENDAR_DATE ( 2017, 1, 2 ) ;
#123 = EDGE_CURVE ( 'NONE', #151, #68, #49, .T. ) ;
#124 = ADVANCED_FACE ( 'NONE', ( #56 ), #61, .T. ) ;
#125 = APPLICATION_CONTEXT ( 'configuration controlled 3d designs of mechanical parts and assemblies' ) ;
#126 = CARTESIAN_POINT ( 'NONE',  ( 0.0000000000000000000, 0.0000000000000000000, 3.000000000000000000 ) ) ;
#127 = DIRECTION ( 'NONE',  ( 0.0000000000000000000, 0.0000000000000000000, 1.000000000000000000 ) ) ;
#128 = PRODUCT_DEFINITION ( 'UNKNOWN', '', #1, #34 ) ;
#129 = SECURITY_CLASSIFICATION ( '', '', #80 ) ;
#130 = VERTEX_POINT ( 'NONE', #172 ) ;
#131 = APPROVAL_PERSON_ORGANIZATION ( #116, #150, #59 ) ;
#132 = EDGE_CURVE ( 'NONE', #68, #151, #91, .T. ) ;
#133 = COORDINATED_UNIVERSAL_TIME_OFFSET ( 5, 0, .BEHIND. ) ;
#134 = VERTEX_POINT ( 'NONE', #100 ) ;
#135 = PERSON_AND_ORGANIZATION ( #92, #88 ) ;
#136 = DIRECTION ( 'NONE',  ( -1.000000000000000000, 0.0000000000000000000, 0.0000000000000000000 ) ) ;
#137 = APPROVAL_DATE_TIME ( #3, #150 ) ;
#138 = CARTESIAN_POINT ( 'NONE',  ( 0.0000000000000000000, 0.0000000000000000000, 0.0000000000000000000 ) ) ;
#139 = CARTESIAN_POINT ( 'NONE',  ( 0.0000000000000000000, 0.0000000000000000000, 3.000000000000000000 ) ) ;
#140 = ORIENTED_EDGE ( 'NONE', *, *, #132, .F. ) ;
#141 =( NAMED_UNIT ( * ) PLANE_ANGLE_UNIT ( ) SI_UNIT ( $, .RADIAN. ) );
#142 = FACE_OUTER_BOUND ( 'NONE', #81, .T. ) ;
#143 = CARTESIAN_POINT ( 'NONE',  ( 0.0000000000000000000, 0.0000000000000000000, 0.0000000000000000000 ) ) ;
#144 = AXIS2_PLACEMENT_3D ( 'NONE', #17, #43, #74 ) ;
#145 = DIRECTION ( 'NONE',  ( 0.0000000000000000000, 0.0000000000000000000, 1.000000000000000000 ) ) ;
#146 = PERSON_AND_ORGANIZATION_ROLE ( 'design_owner' ) ;
#147 = ORIENTED_EDGE ( 'NONE', *, *, #113, .F. ) ;
#148 = APPROVAL_PERSON_ORGANIZATION ( #107, #29, #101 ) ;
#149 = SHAPE_DEFINITION_REPRESENTATION ( #85, #16 ) ;
#150 = APPROVAL ( #11, 'UNSPECIFIED' ) ;
#151 = VERTEX_POINT ( 'NONE', #22 ) ;
#152 = CC_DESIGN_DATE_AND_TIME_ASSIGNMENT ( #95, #102, ( #129 ) ) ;
#153 = CC_DESIGN_PERSON_AND_ORGANIZATION_ASSIGNMENT ( #135, #65, ( #1 ) ) ;
#154 = AXIS2_PLACEMENT_3D ( 'NONE', #63, #38, #162 ) ;
#155 = APPROVAL_DATE_TIME ( #19, #117 ) ;
#156 = ORIENTED_EDGE ( 'NONE', *, *, #94, .T. ) ;
#157 = APPLICATION_PROTOCOL_DEFINITION ( 'international standard', 'config_control_design', 1994, #161 ) ;
#158 = FACE_OUTER_BOUND ( 'NONE', #170, .T. ) ;
#159 = DIRECTION ( 'NONE',  ( 0.0000000000000000000, 0.0000000000000000000, 1.000000000000000000 ) ) ;
#160 = CARTESIAN_POINT ( 'NONE',  ( 0.0000000000000000000, 0.0000000000000000000, 3.000000000000000000 ) ) ;
#161 = APPLICATION_CONTEXT ( 'configuration controlled 3d designs of mechanical parts and assemblies' ) ;
#162 = DIRECTION ( 'NONE',  ( 1.000000000000000000, 0.0000000000000000000, 0.0000000000000000000 ) ) ;
#163 = PERSON_AND_ORGANIZATION_ROLE ( 'design_supplier' ) ;
#164 = CC_DESIGN_APPROVAL ( #117, ( #129 ) ) ;
#165 = AXIS2_PLACEMENT_3D ( 'NONE', #23, #87, #86 ) ;
#166 =( GEOMETRIC_REPRESENTATION_CONTEXT ( 3 ) GLOBAL_UNCERTAINTY_ASSIGNED_CONTEXT ( ( #106 ) ) GLOBAL_UNIT_ASSIGNED_CONTEXT ( ( #90, #141, #8 ) ) REPRESENTATION_CONTEXT ( 'NONE', 'WORKASPACE' ) );
#167 = CARTESIAN_POINT ( 'NONE',  ( -12.50000000000000000, 0.0000000000000000000, 3.000000000000000000 ) ) ;
#168 = COORDINATED_UNIVERSAL_TIME_OFFSET ( 5, 0, .BEHIND. ) ;
#169 = CC_DESIGN_APPROVAL ( #150, ( #128 ) ) ;
#170 = EDGE_LOOP ( 'NONE', ( #110, #60, #30, #47 ) ) ;
#171 = PERSON_AND_ORGANIZATION ( #92, #88 ) ;
#172 = CARTESIAN_POINT ( 'NONE',  ( 12.50000000000000000, 1.530808498934191500E-015, 3.000000000000000000 ) ) ;
#173 = DIRECTION ( 'NONE',  ( 1.000000000000000000, 0.0000000000000000000, 0.0000000000000000000 ) ) ;
#174 = PERSON_AND_ORGANIZATION_ROLE ( 'classification_officer' ) ;
#175 = APPROVAL_DATE_TIME ( #36, #29 ) ;
ENDSEC;
END-ISO-10303-21;
