ISO-10303-21;
HEADER;
FILE_DESCRIPTION (( 'STEP AP203' ),
    '1' );
FILE_NAME ('Web Model 19724_19724.step',
    '2021-11-02T19:06:55',
    ( '' ),
    ( '' ),
    'SwSTEP 2.0',
    'SolidWorks 2018',
    '' );
FILE_SCHEMA (( 'CONFIG_CONTROL_DESIGN' ));
ENDSEC;

DATA;
#1 = PERSON_AND_ORGANIZATION ( #61, #112 ) ;
#2 = AXIS2_PLACEMENT_3D ( 'NONE', #145, #102, #85 ) ;
#3 = EDGE_LOOP ( 'NONE', ( #26, #130, #20, #96 ) ) ;
#4 = PERSON_AND_ORGANIZATION ( #61, #112 ) ;
#5 = ADVANCED_FACE ( 'NONE', ( #38 ), #156, .F. ) ;
#6 = DIRECTION ( 'NONE',  ( -0.000000000000000000, -0.000000000000000000, -1.000000000000000000 ) ) ;
#7 = CARTESIAN_POINT ( 'NONE',  ( 0.000000000000000000, 0.000000000000000000, 0.000000000000000000 ) ) ;
#8 = CARTESIAN_POINT ( 'NONE',  ( 0.000000000000000000, 0.000000000000000000, 0.000000000000000000 ) ) ;
#9 = FACE_OUTER_BOUND ( 'NONE', #3, .T. ) ;
#10 = APPROVAL_STATUS ( 'not_yet_approved' ) ;
#11 = CARTESIAN_POINT ( 'NONE',  ( 0.000000000000000000, 0.000000000000000000, 0.000000000000000000 ) ) ;
#12 = PERSON_AND_ORGANIZATION_ROLE ( 'creator' ) ;
#13 = DESIGN_CONTEXT ( 'detailed design', #36, 'design' ) ;
#14 = LOCAL_TIME ( 15, 6, 55.00000000000000000, #154 ) ;
#15 = VERTEX_POINT ( 'NONE', #131 ) ;
#16 = PLANE ( 'NONE',  #2 ) ;
#17 = EDGE_LOOP ( 'NONE', ( #34, #81 ) ) ;
#18 = PERSON_AND_ORGANIZATION ( #61, #112 ) ;
#19 = DIRECTION ( 'NONE',  ( 1.000000000000000000, 0.000000000000000000, 0.000000000000000000 ) ) ;
#20 = ORIENTED_EDGE ( 'NONE', *, *, #82, .T. ) ;
#21 =( GEOMETRIC_REPRESENTATION_CONTEXT ( 3 ) GLOBAL_UNCERTAINTY_ASSIGNED_CONTEXT ( ( #74 ) ) GLOBAL_UNIT_ASSIGNED_CONTEXT ( ( #160, #136, #37 ) ) REPRESENTATION_CONTEXT ( 'NONE', 'WORKASPACE' ) );
#22 = FACE_OUTER_BOUND ( 'NONE', #143, .T. ) ;
#23 = PERSON_AND_ORGANIZATION_ROLE ( 'classification_officer' ) ;
#24 = COORDINATED_UNIVERSAL_TIME_OFFSET ( 5, 0, .BEHIND. ) ;
#25 = EDGE_CURVE ( 'NONE', #75, #132, #100, .T. ) ;
#26 = ORIENTED_EDGE ( 'NONE', *, *, #152, .F. ) ;
#27 = VECTOR ( 'NONE', #117, 1000.000000000000000 ) ;
#28 = COORDINATED_UNIVERSAL_TIME_OFFSET ( 5, 0, .BEHIND. ) ;
#29 = CC_DESIGN_PERSON_AND_ORGANIZATION_ASSIGNMENT ( #144, #92, ( #161 ) ) ;
#30 = PRODUCT_RELATED_PRODUCT_CATEGORY ( 'detail', '', ( #83 ) ) ;
#31 = PERSON_AND_ORGANIZATION ( #61, #112 ) ;
#32 = CALENDAR_DATE ( 2021, 2, 11 ) ;
#33 = CARTESIAN_POINT ( 'NONE',  ( 0.000000000000000000, 0.000000000000000000, 1.000000000000000000 ) ) ;
#34 = ORIENTED_EDGE ( 'NONE', *, *, #153, .F. ) ;
#35 = APPROVAL ( #134, 'UNSPECIFIED' ) ;
#36 = APPLICATION_CONTEXT ( 'configuration controlled 3d designs of mechanical parts and assemblies' ) ;
#37 =( NAMED_UNIT ( * ) SI_UNIT ( $, .STERADIAN. ) SOLID_ANGLE_UNIT ( ) );
#38 = FACE_OUTER_BOUND ( 'NONE', #17, .T. ) ;
#39 = APPROVAL_ROLE ( '' ) ;
#40 = APPROVAL_PERSON_ORGANIZATION ( #18, #35, #172 ) ;
#41 = PRODUCT_DEFINITION_SHAPE ( 'NONE', 'NONE',  #161 ) ;
#42 = ADVANCED_BREP_SHAPE_REPRESENTATION ( 'Web Model 19724_19724', ( #105, #115 ), #21 ) ;
#43 = CALENDAR_DATE ( 2021, 2, 11 ) ;
#44 = CIRCLE ( 'NONE', #135, 2.500000000000000000 ) ;
#45 = CC_DESIGN_PERSON_AND_ORGANIZATION_ASSIGNMENT ( #140, #23, ( #99 ) ) ;
#46 = LOCAL_TIME ( 15, 6, 55.00000000000000000, #148 ) ;
#47 = LOCAL_TIME ( 15, 6, 55.00000000000000000, #28 ) ;
#48 = AXIS2_PLACEMENT_3D ( 'NONE', #106, #68, #175 ) ;
#49 = CIRCLE ( 'NONE', #171, 2.500000000000000000 ) ;
#50 = CC_DESIGN_APPROVAL ( #53, ( #99 ) ) ;
#51 = APPROVAL_STATUS ( 'not_yet_approved' ) ;
#52 = PERSON_AND_ORGANIZATION_ROLE ( 'design_supplier' ) ;
#53 = APPROVAL ( #51, 'UNSPECIFIED' ) ;
#54 = CARTESIAN_POINT ( 'NONE',  ( 0.000000000000000000, 0.000000000000000000, 0.000000000000000000 ) ) ;
#55 = VERTEX_POINT ( 'NONE', #89 ) ;
#56 = PERSON_AND_ORGANIZATION ( #61, #112 ) ;
#57 = PRODUCT_DEFINITION_FORMATION_WITH_SPECIFIED_SOURCE ( 'ANY', '', #83, .NOT_KNOWN. ) ;
#58 = CYLINDRICAL_SURFACE ( 'NONE', #97, 2.500000000000000000 ) ;
#59 = CC_DESIGN_PERSON_AND_ORGANIZATION_ASSIGNMENT ( #56, #12, ( #57 ) ) ;
#60 = DIRECTION ( 'NONE',  ( 0.000000000000000000, 0.000000000000000000, 1.000000000000000000 ) ) ;
#61 = PERSON ( 'UNSPECIFIED', 'UNSPECIFIED', 'UNSPECIFIED', ('UNSPECIFIED'), ('UNSPECIFIED'), ('UNSPECIFIED') ) ;
#62 = CC_DESIGN_DATE_AND_TIME_ASSIGNMENT ( #125, #133, ( #99 ) ) ;
#63 = DIRECTION ( 'NONE',  ( 1.000000000000000000, 0.000000000000000000, -0.000000000000000000 ) ) ;
#64 = CARTESIAN_POINT ( 'NONE',  ( 0.000000000000000000, 0.000000000000000000, 1.000000000000000000 ) ) ;
#65 = DIRECTION ( 'NONE',  ( -1.000000000000000000, 0.000000000000000000, 0.000000000000000000 ) ) ;
#66 = ORIENTED_EDGE ( 'NONE', *, *, #152, .T. ) ;
#67 = CC_DESIGN_PERSON_AND_ORGANIZATION_ASSIGNMENT ( #31, #122, ( #83 ) ) ;
#68 = DIRECTION ( 'NONE',  ( 0.000000000000000000, 0.000000000000000000, 1.000000000000000000 ) ) ;
#69 = CLOSED_SHELL ( 'NONE', ( #168, #116, #86, #5 ) ) ;
#70 = SHAPE_DEFINITION_REPRESENTATION ( #41, #42 ) ;
#71 = CC_DESIGN_SECURITY_CLASSIFICATION ( #99, ( #57 ) ) ;
#72 = DATE_AND_TIME ( #118, #46 ) ;
#73 = LOCAL_TIME ( 15, 6, 55.00000000000000000, #146 ) ;
#74 = UNCERTAINTY_MEASURE_WITH_UNIT (LENGTH_MEASURE( 1.000000000000000082E-05 ), #160, 'distance_accuracy_value', 'NONE');
#75 = VERTEX_POINT ( 'NONE', #103 ) ;
#76 = PERSON_AND_ORGANIZATION ( #61, #112 ) ;
#77 = DIRECTION ( 'NONE',  ( 1.000000000000000000, 0.000000000000000000, 0.000000000000000000 ) ) ;
#78 = CARTESIAN_POINT ( 'NONE',  ( 2.500000000000000000, 3.061616997868383141E-16, 1.000000000000000000 ) ) ;
#79 = DIRECTION ( 'NONE',  ( 1.000000000000000000, 0.000000000000000000, 0.000000000000000000 ) ) ;
#80 = LOCAL_TIME ( 15, 6, 55.00000000000000000, #24 ) ;
#81 = ORIENTED_EDGE ( 'NONE', *, *, #82, .F. ) ;
#82 = EDGE_CURVE ( 'NONE', #15, #132, #166, .T. ) ;
#83 = PRODUCT ( 'Web Model 19724_19724', 'Web Model 19724_19724', '', ( #123 ) ) ;
#84 = AXIS2_PLACEMENT_3D ( 'NONE', #7, #60, #19 ) ;
#85 = DIRECTION ( 'NONE',  ( 1.000000000000000000, 0.000000000000000000, -0.000000000000000000 ) ) ;
#86 = ADVANCED_FACE ( 'NONE', ( #22 ), #16, .T. ) ;
#87 = APPROVAL_DATE_TIME ( #151, #138 ) ;
#88 = CC_DESIGN_APPROVAL ( #138, ( #161 ) ) ;
#89 = CARTESIAN_POINT ( 'NONE',  ( 2.500000000000000000, 3.061616997868383141E-16, 1.000000000000000000 ) ) ;
#90 = DIRECTION ( 'NONE',  ( 0.000000000000000000, 0.000000000000000000, 1.000000000000000000 ) ) ;
#91 = CARTESIAN_POINT ( 'NONE',  ( 0.000000000000000000, 0.000000000000000000, 1.000000000000000000 ) ) ;
#92 = PERSON_AND_ORGANIZATION_ROLE ( 'creator' ) ;
#93 = VECTOR ( 'NONE', #174, 1000.000000000000000 ) ;
#94 = CC_DESIGN_APPROVAL ( #35, ( #57 ) ) ;
#95 = APPLICATION_PROTOCOL_DEFINITION ( 'international standard', 'config_control_design', 1994, #36 ) ;
#96 = ORIENTED_EDGE ( 'NONE', *, *, #25, .F. ) ;
#97 = AXIS2_PLACEMENT_3D ( 'NONE', #91, #158, #65 ) ;
#98 = ORIENTED_EDGE ( 'NONE', *, *, #155, .F. ) ;
#99 = SECURITY_CLASSIFICATION ( '', '', #104 ) ;
#100 = LINE ( 'NONE', #119, #27 ) ;
#101 = APPROVAL_DATE_TIME ( #126, #53 ) ;
#102 = DIRECTION ( 'NONE',  ( 0.000000000000000000, 0.000000000000000000, 1.000000000000000000 ) ) ;
#103 = CARTESIAN_POINT ( 'NONE',  ( -2.500000000000000000, 0.000000000000000000, 1.000000000000000000 ) ) ;
#104 = SECURITY_CLASSIFICATION_LEVEL ( 'unclassified' ) ;
#105 = MANIFOLD_SOLID_BREP ( 'Boss-Extrude1', #69 ) ;
#106 = CARTESIAN_POINT ( 'NONE',  ( 0.000000000000000000, 0.000000000000000000, 1.000000000000000000 ) ) ;
#107 = CYLINDRICAL_SURFACE ( 'NONE', #113, 2.500000000000000000 ) ;
#108 = DIRECTION ( 'NONE',  ( 0.000000000000000000, 0.000000000000000000, 1.000000000000000000 ) ) ;
#109 = DIRECTION ( 'NONE',  ( 0.000000000000000000, 0.000000000000000000, 1.000000000000000000 ) ) ;
#110 = ORIENTED_EDGE ( 'NONE', *, *, #25, .T. ) ;
#111 = APPROVAL_DATE_TIME ( #114, #35 ) ;
#112 = ORGANIZATION ( 'UNSPECIFIED', 'UNSPECIFIED', '' ) ;
#113 = AXIS2_PLACEMENT_3D ( 'NONE', #33, #6, #169 ) ;
#114 = DATE_AND_TIME ( #32, #80 ) ;
#115 = AXIS2_PLACEMENT_3D ( 'NONE', #11, #108, #79 ) ;
#116 = ADVANCED_FACE ( 'NONE', ( #162 ), #107, .T. ) ;
#117 = DIRECTION ( 'NONE',  ( -0.000000000000000000, -0.000000000000000000, -1.000000000000000000 ) ) ;
#118 = CALENDAR_DATE ( 2021, 2, 11 ) ;
#119 = CARTESIAN_POINT ( 'NONE',  ( -2.500000000000000000, 0.000000000000000000, 1.000000000000000000 ) ) ;
#120 = CARTESIAN_POINT ( 'NONE',  ( -2.500000000000000000, 0.000000000000000000, 0.000000000000000000 ) ) ;
#121 = APPLICATION_CONTEXT ( 'configuration controlled 3d designs of mechanical parts and assemblies' ) ;
#122 = PERSON_AND_ORGANIZATION_ROLE ( 'design_owner' ) ;
#123 = MECHANICAL_CONTEXT ( 'NONE', #121, 'mechanical' ) ;
#124 = ORIENTED_EDGE ( 'NONE', *, *, #141, .T. ) ;
#125 = DATE_AND_TIME ( #43, #14 ) ;
#126 = DATE_AND_TIME ( #142, #73 ) ;
#127 = CC_DESIGN_PERSON_AND_ORGANIZATION_ASSIGNMENT ( #76, #52, ( #57 ) ) ;
#128 = LINE ( 'NONE', #78, #93 ) ;
#129 = DIRECTION ( 'NONE',  ( 0.000000000000000000, 0.000000000000000000, 1.000000000000000000 ) ) ;
#130 = ORIENTED_EDGE ( 'NONE', *, *, #155, .T. ) ;
#131 = CARTESIAN_POINT ( 'NONE',  ( 2.500000000000000000, 3.061616997868383141E-16, 0.000000000000000000 ) ) ;
#132 = VERTEX_POINT ( 'NONE', #120 ) ;
#133 = DATE_TIME_ROLE ( 'classification_date' ) ;
#134 = APPROVAL_STATUS ( 'not_yet_approved' ) ;
#135 = AXIS2_PLACEMENT_3D ( 'NONE', #54, #109, #149 ) ;
#136 =( NAMED_UNIT ( * ) PLANE_ANGLE_UNIT ( ) SI_UNIT ( $, .RADIAN. ) );
#137 = CALENDAR_DATE ( 2021, 2, 11 ) ;
#138 = APPROVAL ( #10, 'UNSPECIFIED' ) ;
#139 = CIRCLE ( 'NONE', #48, 2.500000000000000000 ) ;
#140 = PERSON_AND_ORGANIZATION ( #61, #112 ) ;
#141 = EDGE_CURVE ( 'NONE', #75, #55, #49, .T. ) ;
#142 = CALENDAR_DATE ( 2021, 2, 11 ) ;
#143 = EDGE_LOOP ( 'NONE', ( #124, #66 ) ) ;
#144 = PERSON_AND_ORGANIZATION ( #61, #112 ) ;
#145 = CARTESIAN_POINT ( 'NONE',  ( 0.000000000000000000, 0.000000000000000000, 1.000000000000000000 ) ) ;
#146 = COORDINATED_UNIVERSAL_TIME_OFFSET ( 5, 0, .BEHIND. ) ;
#147 = APPROVAL_ROLE ( '' ) ;
#148 = COORDINATED_UNIVERSAL_TIME_OFFSET ( 5, 0, .BEHIND. ) ;
#149 = DIRECTION ( 'NONE',  ( 1.000000000000000000, 0.000000000000000000, 0.000000000000000000 ) ) ;
#150 = APPLICATION_PROTOCOL_DEFINITION ( 'international standard', 'config_control_design', 1994, #121 ) ;
#151 = DATE_AND_TIME ( #137, #47 ) ;
#152 = EDGE_CURVE ( 'NONE', #55, #75, #139, .T. ) ;
#153 = EDGE_CURVE ( 'NONE', #132, #15, #44, .T. ) ;
#154 = COORDINATED_UNIVERSAL_TIME_OFFSET ( 5, 0, .BEHIND. ) ;
#155 = EDGE_CURVE ( 'NONE', #55, #15, #128, .T. ) ;
#156 = PLANE ( 'NONE',  #167 ) ;
#157 = EDGE_LOOP ( 'NONE', ( #98, #163, #110, #165 ) ) ;
#158 = DIRECTION ( 'NONE',  ( -0.000000000000000000, -0.000000000000000000, -1.000000000000000000 ) ) ;
#159 = CC_DESIGN_DATE_AND_TIME_ASSIGNMENT ( #72, #170, ( #161 ) ) ;
#160 =( LENGTH_UNIT ( ) NAMED_UNIT ( * ) SI_UNIT ( .MILLI., .METRE. ) );
#161 = PRODUCT_DEFINITION ( 'UNKNOWN', '', #57, #13 ) ;
#162 = FACE_OUTER_BOUND ( 'NONE', #157, .T. ) ;
#163 = ORIENTED_EDGE ( 'NONE', *, *, #141, .F. ) ;
#164 = APPROVAL_PERSON_ORGANIZATION ( #4, #53, #147 ) ;
#165 = ORIENTED_EDGE ( 'NONE', *, *, #153, .T. ) ;
#166 = CIRCLE ( 'NONE', #84, 2.500000000000000000 ) ;
#167 = AXIS2_PLACEMENT_3D ( 'NONE', #8, #129, #63 ) ;
#168 = ADVANCED_FACE ( 'NONE', ( #9 ), #58, .T. ) ;
#169 = DIRECTION ( 'NONE',  ( -1.000000000000000000, 0.000000000000000000, 0.000000000000000000 ) ) ;
#170 = DATE_TIME_ROLE ( 'creation_date' ) ;
#171 = AXIS2_PLACEMENT_3D ( 'NONE', #64, #90, #77 ) ;
#172 = APPROVAL_ROLE ( '' ) ;
#173 = APPROVAL_PERSON_ORGANIZATION ( #1, #138, #39 ) ;
#174 = DIRECTION ( 'NONE',  ( -0.000000000000000000, -0.000000000000000000, -1.000000000000000000 ) ) ;
#175 = DIRECTION ( 'NONE',  ( 1.000000000000000000, 0.000000000000000000, 0.000000000000000000 ) ) ;
ENDSEC;
END-ISO-10303-21;
