ISO-10303-21;
HEADER;
FILE_DESCRIPTION (( 'STEP AP203' ),
    '1' );
FILE_NAME ('TTN162815-E0W.STEP',
    '2019-10-24T14:18:47',
    ( '' ),
    ( '' ),
    'SwSTEP 2.0',
    'SolidWorks 2018',
    '' );
FILE_SCHEMA (( 'CONFIG_CONTROL_DESIGN' ));
ENDSEC;

DATA;
#1 = DIRECTION ( 'NONE',  ( 1.000000000000000000, 0.0000000000000000000, 0.0000000000000000000 ) ) ;
#2 = VERTEX_POINT ( 'NONE', #219 ) ;
#3 = DIRECTION ( 'NONE',  ( 1.000000000000000000, 0.0000000000000000000, 0.0000000000000000000 ) ) ;
#4 = CONICAL_SURFACE ( 'NONE', #285, 1.000000000000000000, 0.7853981633974439491 ) ;
#5 = DIRECTION ( 'NONE',  ( 0.0000000000000000000, 0.0000000000000000000, -1.000000000000000000 ) ) ;
#6 = ORIENTED_EDGE ( 'NONE', *, *, #31, .T. ) ;
#7 = ORIENTED_EDGE ( 'NONE', *, *, #301, .F. ) ;
#8 = DIRECTION ( 'NONE',  ( 1.000000000000000000, 0.0000000000000000000, 0.0000000000000000000 ) ) ;
#9 = APPROVAL_DATE_TIME ( #169, #58 ) ;
#10 = DIRECTION ( 'NONE',  ( 0.7071067811865467956, 8.659560562354925463E-17, -0.7071067811865483499 ) ) ;
#11 = DIRECTION ( 'NONE',  ( -1.000000000000000000, 0.0000000000000000000, 0.0000000000000000000 ) ) ;
#12 = ADVANCED_FACE ( 'NONE', ( #249 ), #4, .T. ) ;
#13 = ADVANCED_FACE ( 'NONE', ( #290 ), #295, .F. ) ;
#14 = DIRECTION ( 'NONE',  ( -0.0000000000000000000, -0.0000000000000000000, 1.000000000000000000 ) ) ;
#15 = VECTOR ( 'NONE', #275, 1000.000000000000000 ) ;
#16 = AXIS2_PLACEMENT_3D ( 'NONE', #51, #224, #32 ) ;
#17 = DESIGN_CONTEXT ( 'detailed design', #185, 'design' ) ;
#18 = ORIENTED_EDGE ( 'NONE', *, *, #180, .F. ) ;
#19 = AXIS2_PLACEMENT_3D ( 'NONE', #106, #28, #129 ) ;
#20 = CC_DESIGN_PERSON_AND_ORGANIZATION_ASSIGNMENT ( #282, #40, ( #27 ) ) ;
#21 = MECHANICAL_CONTEXT ( 'NONE', #281, 'mechanical' ) ;
#22 = LOCAL_TIME ( 10, 18, 47.00000000000000000, #113 ) ;
#23 = ORIENTED_EDGE ( 'NONE', *, *, #237, .F. ) ;
#24 = EDGE_CURVE ( 'NONE', #179, #128, #43, .T. ) ;
#25 = PERSON ( 'UNSPECIFIED', 'UNSPECIFIED', 'UNSPECIFIED', ('UNSPECIFIED'), ('UNSPECIFIED'), ('UNSPECIFIED') ) ;
#26 = FACE_OUTER_BOUND ( 'NONE', #48, .T. ) ;
#27 = SECURITY_CLASSIFICATION ( '', '', #310 ) ;
#28 = DIRECTION ( 'NONE',  ( -0.0000000000000000000, -0.0000000000000000000, 1.000000000000000000 ) ) ;
#29 = CARTESIAN_POINT ( 'NONE',  ( 0.7352129622484702143, 0.9414593414220470136, 1.110618796649168738 ) ) ;
#30 = DIRECTION ( 'NONE',  ( 1.000000000000000000, 0.0000000000000000000, 0.0000000000000000000 ) ) ;
#31 = EDGE_CURVE ( 'NONE', #98, #36, #226, .T. ) ;
#32 = DIRECTION ( 'NONE',  ( -1.000000000000000000, 0.0000000000000000000, 0.0000000000000000000 ) ) ;
#33 = ORIENTED_EDGE ( 'NONE', *, *, #308, .T. ) ;
#34 = CC_DESIGN_APPROVAL ( #167, ( #127 ) ) ;
#35 = ORIENTED_EDGE ( 'NONE', *, *, #292, .T. ) ;
#36 = VERTEX_POINT ( 'NONE', #268 ) ;
#37 = CARTESIAN_POINT ( 'NONE',  ( 0.7352129622484702143, 0.9414593414220470136, -0.6403812033508311519 ) ) ;
#38 = PERSON_AND_ORGANIZATION ( #25, #150 ) ;
#39 = APPLICATION_PROTOCOL_DEFINITION ( 'international standard', 'config_control_design', 1994, #185 ) ;
#40 = PERSON_AND_ORGANIZATION_ROLE ( 'classification_officer' ) ;
#41 =( LENGTH_UNIT ( ) NAMED_UNIT ( * ) SI_UNIT ( .MILLI., .METRE. ) );
#42 = PRODUCT ( 'TTN162815-E0W', 'TTN162815-E0W', '', ( #21 ) ) ;
#43 = CIRCLE ( 'NONE', #19, 0.9500000000000005107 ) ;
#44 = ORIENTED_EDGE ( 'NONE', *, *, #180, .T. ) ;
#45 = SHAPE_DEFINITION_REPRESENTATION ( #221, #78 ) ;
#46 = CC_DESIGN_APPROVAL ( #58, ( #103 ) ) ;
#47 = CARTESIAN_POINT ( 'NONE',  ( 0.7352129622484702143, 0.9414593414220470136, 1.891381953873316757 ) ) ;
#48 = EDGE_LOOP ( 'NONE', ( #255, #18, #54, #102, #189 ) ) ;
#49 = EDGE_LOOP ( 'NONE', ( #62, #35, #311, #239 ) ) ;
#50 = CARTESIAN_POINT ( 'NONE',  ( 0.7352129622484702143, 0.9414593414220470136, 1.110618796649168738 ) ) ;
#51 = CARTESIAN_POINT ( 'NONE',  ( 0.7352129622484702143, 0.9414593414220470136, 1.891381953873316757 ) ) ;
#52 = LINE ( 'NONE', #243, #15 ) ;
#53 = CARTESIAN_POINT ( 'NONE',  ( 1.735212962248470214, 0.9414593414220470136, 1.891381953873316757 ) ) ;
#54 = ORIENTED_EDGE ( 'NONE', *, *, #168, .F. ) ;
#55 = CARTESIAN_POINT ( 'NONE',  ( -0.2647870377515298412, 0.9414593414220470136, 1.891381953873316757 ) ) ;
#56 = EDGE_CURVE ( 'NONE', #153, #213, #166, .T. ) ;
#57 = DIRECTION ( 'NONE',  ( 0.0000000000000000000, 1.000000000000000000, 0.0000000000000000000 ) ) ;
#58 = APPROVAL ( #207, 'UNSPECIFIED' ) ;
#59 = VECTOR ( 'NONE', #181, 1000.000000000000000 ) ;
#60 = CARTESIAN_POINT ( 'NONE',  ( 0.7352129622484702143, 0.9414593414220470136, 2.110618796649168960 ) ) ;
#61 = APPROVAL_ROLE ( '' ) ;
#62 = ORIENTED_EDGE ( 'NONE', *, *, #237, .T. ) ;
#63 = DATE_TIME_ROLE ( 'classification_date' ) ;
#64 = LOCAL_TIME ( 10, 18, 47.00000000000000000, #149 ) ;
#65 = AXIS2_PLACEMENT_3D ( 'NONE', #50, #222, #273 ) ;
#66 = CONICAL_SURFACE ( 'NONE', #172, 1.000000000000000000, 0.7853981633974439491 ) ;
#67 =( NAMED_UNIT ( * ) PLANE_ANGLE_UNIT ( ) SI_UNIT ( $, .RADIAN. ) );
#68 = DIRECTION ( 'NONE',  ( -0.0000000000000000000, -0.0000000000000000000, 1.000000000000000000 ) ) ;
#69 = AXIS2_PLACEMENT_3D ( 'NONE', #29, #131, #3 ) ;
#70 = EDGE_LOOP ( 'NONE', ( #296, #133, #254, #151, #267 ) ) ;
#71 = CC_DESIGN_DATE_AND_TIME_ASSIGNMENT ( #264, #231, ( #127 ) ) ;
#72 = CALENDAR_DATE ( 2019, 24, 10 ) ;
#73 = CYLINDRICAL_SURFACE ( 'NONE', #240, 1.000000000000000000 ) ;
#74 = CLOSED_SHELL ( 'NONE', ( #252, #115, #201, #283, #13, #262, #204, #232, #12 ) ) ;
#75 = EDGE_LOOP ( 'NONE', ( #193, #33, #270, #186 ) ) ;
#76 = APPROVAL_DATE_TIME ( #162, #214 ) ;
#77 = SPHERICAL_SURFACE ( 'NONE', #120, 2.750999999999999890 ) ;
#78 = ADVANCED_BREP_SHAPE_REPRESENTATION ( 'TTN162815-E0W', ( #312, #94 ), #294 ) ;
#79 = AXIS2_PLACEMENT_3D ( 'NONE', #80, #248, #200 ) ;
#80 = CARTESIAN_POINT ( 'NONE',  ( 0.7352129622484702143, 0.9414593414220470136, 1.891381953873316757 ) ) ;
#81 = VERTEX_POINT ( 'NONE', #101 ) ;
#82 = DIRECTION ( 'NONE',  ( 0.0000000000000000000, 1.000000000000000000, 0.0000000000000000000 ) ) ;
#83 = CARTESIAN_POINT ( 'NONE',  ( 0.7352129622484702143, 0.9414593414220472356, 2.110618796649168960 ) ) ;
#84 = DIRECTION ( 'NONE',  ( -0.0000000000000000000, -0.0000000000000000000, 1.000000000000000000 ) ) ;
#85 = CARTESIAN_POINT ( 'NONE',  ( 0.7352129622484702143, 0.9414593414220470136, 1.160618796649169004 ) ) ;
#86 = ORIENTED_EDGE ( 'NONE', *, *, #111, .T. ) ;
#87 = CARTESIAN_POINT ( 'NONE',  ( 0.7352129622484702143, 0.9414593414220470136, 1.891381953873316757 ) ) ;
#88 = LOCAL_TIME ( 10, 18, 47.00000000000000000, #123 ) ;
#89 = APPROVAL_ROLE ( '' ) ;
#90 = PERSON_AND_ORGANIZATION ( #25, #150 ) ;
#91 = CARTESIAN_POINT ( 'NONE',  ( 0.7352129622484702143, 0.9414593414220470136, 1.110618796649168738 ) ) ;
#92 = DIRECTION ( 'NONE',  ( -1.182336065960201216E-16, -1.000000000000000000, 0.0000000000000000000 ) ) ;
#93 = CARTESIAN_POINT ( 'NONE',  ( 0.0000000000000000000, 0.0000000000000000000, 0.0000000000000000000 ) ) ;
#94 = AXIS2_PLACEMENT_3D ( 'NONE', #93, #177, #289 ) ;
#95 = CALENDAR_DATE ( 2019, 24, 10 ) ;
#96 = EDGE_LOOP ( 'NONE', ( #7, #44, #287, #118 ) ) ;
#97 = ORIENTED_EDGE ( 'NONE', *, *, #161, .F. ) ;
#98 = VERTEX_POINT ( 'NONE', #321 ) ;
#99 = CIRCLE ( 'NONE', #225, 2.750999999999999890 ) ;
#100 = PERSON_AND_ORGANIZATION ( #25, #150 ) ;
#101 = CARTESIAN_POINT ( 'NONE',  ( 0.7352129622484701033, -0.008540658577953209180, 1.941381953873316579 ) ) ;
#102 = ORIENTED_EDGE ( 'NONE', *, *, #218, .T. ) ;
#103 = PRODUCT_DEFINITION_FORMATION_WITH_SPECIFIED_SOURCE ( 'ANY', '', #42, .NOT_KNOWN. ) ;
#104 = PERSON_AND_ORGANIZATION ( #25, #150 ) ;
#105 = CIRCLE ( 'NONE', #187, 0.9500000000000002887 ) ;
#106 = CARTESIAN_POINT ( 'NONE',  ( 0.7352129622484702143, 0.9414593414220470136, 1.941381953873316579 ) ) ;
#107 = CARTESIAN_POINT ( 'NONE',  ( -0.2647870377515298412, 0.9414593414220471246, 1.160618796649169004 ) ) ;
#108 = APPROVAL_PERSON_ORGANIZATION ( #100, #167, #61 ) ;
#109 = CARTESIAN_POINT ( 'NONE',  ( -0.2647870377515298412, 0.9414593414220471246, 1.891381953873316757 ) ) ;
#110 = CARTESIAN_POINT ( 'NONE',  ( 0.7352129622484702143, 0.9414593414220470136, 1.941381953873316579 ) ) ;
#111 = EDGE_CURVE ( 'NONE', #36, #125, #52, .T. ) ;
#112 = DIRECTION ( 'NONE',  ( 1.000000000000000000, 0.0000000000000000000, 0.0000000000000000000 ) ) ;
#113 = COORDINATED_UNIVERSAL_TIME_OFFSET ( 5, 0, .BEHIND. ) ;
#114 = LINE ( 'NONE', #182, #135 ) ;
#115 = ADVANCED_FACE ( 'NONE', ( #126 ), #215, .T. ) ;
#116 = CARTESIAN_POINT ( 'NONE',  ( 1.735212962248470214, 0.9414593414220470136, 2.110618796649168960 ) ) ;
#117 = DIRECTION ( 'NONE',  ( 0.7071067811865444641, 0.0000000000000000000, 0.7071067811865505703 ) ) ;
#118 = ORIENTED_EDGE ( 'NONE', *, *, #161, .T. ) ;
#119 = DIRECTION ( 'NONE',  ( 0.0000000000000000000, 0.0000000000000000000, -1.000000000000000000 ) ) ;
#120 = AXIS2_PLACEMENT_3D ( 'NONE', #277, #11, #57 ) ;
#121 = LINE ( 'NONE', #165, #192 ) ;
#122 =( NAMED_UNIT ( * ) SI_UNIT ( $, .STERADIAN. ) SOLID_ANGLE_UNIT ( ) );
#123 = COORDINATED_UNIVERSAL_TIME_OFFSET ( 5, 0, .BEHIND. ) ;
#124 = CIRCLE ( 'NONE', #164, 0.9500000000000005107 ) ;
#125 = VERTEX_POINT ( 'NONE', #107 ) ;
#126 = FACE_OUTER_BOUND ( 'NONE', #234, .T. ) ;
#127 = PRODUCT_DEFINITION ( 'UNKNOWN', '', #103, #17 ) ;
#128 = VERTEX_POINT ( 'NONE', #306 ) ;
#129 = DIRECTION ( 'NONE',  ( 1.000000000000000000, 0.0000000000000000000, 0.0000000000000000000 ) ) ;
#130 = CONICAL_SURFACE ( 'NONE', #79, 1.000000000000000000, 0.7853981633974472798 ) ;
#131 = DIRECTION ( 'NONE',  ( 0.0000000000000000000, -0.0000000000000000000, 1.000000000000000000 ) ) ;
#132 = PRODUCT_RELATED_PRODUCT_CATEGORY ( 'detail', '', ( #42 ) ) ;
#133 = ORIENTED_EDGE ( 'NONE', *, *, #244, .T. ) ;
#134 = CC_DESIGN_PERSON_AND_ORGANIZATION_ASSIGNMENT ( #257, #145, ( #103 ) ) ;
#135 = VECTOR ( 'NONE', #68, 1000.000000000000000 ) ;
#136 = AXIS2_PLACEMENT_3D ( 'NONE', #138, #84, #251 ) ;
#137 = EDGE_LOOP ( 'NONE', ( #247, #216, #178, #160 ) ) ;
#138 = CARTESIAN_POINT ( 'NONE',  ( 0.7352129622484702143, 0.9414593414220470136, 1.160618796649169004 ) ) ;
#139 = CC_DESIGN_APPROVAL ( #214, ( #27 ) ) ;
#140 = CARTESIAN_POINT ( 'NONE',  ( 0.7352129622484702143, 1.891459341422047302, 1.941381953873316579 ) ) ;
#141 = PERSON_AND_ORGANIZATION_ROLE ( 'design_owner' ) ;
#142 = PERSON_AND_ORGANIZATION ( #25, #150 ) ;
#143 = VECTOR ( 'NONE', #10, 999.9999999999998863 ) ;
#144 = DIRECTION ( 'NONE',  ( 1.000000000000000000, 0.0000000000000000000, 0.0000000000000000000 ) ) ;
#145 = PERSON_AND_ORGANIZATION_ROLE ( 'design_supplier' ) ;
#146 = DIRECTION ( 'NONE',  ( -1.000000000000000000, 1.224646799147353207E-16, 0.0000000000000000000 ) ) ;
#147 = EDGE_CURVE ( 'NONE', #2, #179, #298, .T. ) ;
#148 = EDGE_LOOP ( 'NONE', ( #6, #171 ) ) ;
#149 = COORDINATED_UNIVERSAL_TIME_OFFSET ( 5, 0, .BEHIND. ) ;
#150 = ORGANIZATION ( 'UNSPECIFIED', 'UNSPECIFIED', '' ) ;
#151 = ORIENTED_EDGE ( 'NONE', *, *, #218, .F. ) ;
#152 = APPROVAL_DATE_TIME ( #284, #167 ) ;
#153 = VERTEX_POINT ( 'NONE', #53 ) ;
#154 = DIRECTION ( 'NONE',  ( 1.000000000000000000, 0.0000000000000000000, 0.0000000000000000000 ) ) ;
#155 = APPROVAL_PERSON_ORGANIZATION ( #175, #58, #89 ) ;
#156 = AXIS2_PLACEMENT_3D ( 'NONE', #37, #303, #82 ) ;
#157 = DIRECTION ( 'NONE',  ( -0.0000000000000000000, -0.0000000000000000000, 1.000000000000000000 ) ) ;
#158 = DIRECTION ( 'NONE',  ( -0.0000000000000000000, -0.0000000000000000000, 1.000000000000000000 ) ) ;
#159 = ORIENTED_EDGE ( 'NONE', *, *, #271, .F. ) ;
#160 = ORIENTED_EDGE ( 'NONE', *, *, #308, .F. ) ;
#161 = EDGE_CURVE ( 'NONE', #179, #197, #314, .T. ) ;
#162 = DATE_AND_TIME ( #319, #22 ) ;
#163 = VERTEX_POINT ( 'NONE', #278 ) ;
#164 = AXIS2_PLACEMENT_3D ( 'NONE', #202, #245, #8 ) ;
#165 = CARTESIAN_POINT ( 'NONE',  ( 1.735212962248470214, 0.9414593414220470136, 1.160618796649169004 ) ) ;
#166 = CIRCLE ( 'NONE', #250, 1.000000000000000000 ) ;
#167 = APPROVAL ( #205, 'UNSPECIFIED' ) ;
#168 = EDGE_CURVE ( 'NONE', #128, #81, #124, .T. ) ;
#169 = DATE_AND_TIME ( #72, #64 ) ;
#170 = FACE_OUTER_BOUND ( 'NONE', #75, .T. ) ;
#171 = ORIENTED_EDGE ( 'NONE', *, *, #253, .T. ) ;
#172 = AXIS2_PLACEMENT_3D ( 'NONE', #85, #299, #154 ) ;
#173 = CONICAL_SURFACE ( 'NONE', #16, 1.000000000000000000, 0.7853981633974472798 ) ;
#174 = DIRECTION ( 'NONE',  ( 1.000000000000000000, 0.0000000000000000000, 0.0000000000000000000 ) ) ;
#175 = PERSON_AND_ORGANIZATION ( #25, #150 ) ;
#176 = CIRCLE ( 'NONE', #276, 1.000000000000000000 ) ;
#177 = DIRECTION ( 'NONE',  ( 0.0000000000000000000, 0.0000000000000000000, 1.000000000000000000 ) ) ;
#178 = ORIENTED_EDGE ( 'NONE', *, *, #271, .T. ) ;
#179 = VERTEX_POINT ( 'NONE', #140 ) ;
#180 = EDGE_CURVE ( 'NONE', #81, #2, #188, .T. ) ;
#181 = DIRECTION ( 'NONE',  ( -0.0000000000000000000, -0.0000000000000000000, 1.000000000000000000 ) ) ;
#182 = CARTESIAN_POINT ( 'NONE',  ( -0.2647870377515298412, 0.9414593414220471246, 2.110618796649168960 ) ) ;
#183 = FACE_OUTER_BOUND ( 'NONE', #70, .T. ) ;
#184 = CARTESIAN_POINT ( 'NONE',  ( 0.7352129622484702143, 0.9414593414220470136, -0.6403812033508311519 ) ) ;
#185 = APPLICATION_CONTEXT ( 'configuration controlled 3d designs of mechanical parts and assemblies' ) ;
#186 = ORIENTED_EDGE ( 'NONE', *, *, #320, .F. ) ;
#187 = AXIS2_PLACEMENT_3D ( 'NONE', #91, #119, #309 ) ;
#188 = CIRCLE ( 'NONE', #317, 0.9500000000000005107 ) ;
#189 = ORIENTED_EDGE ( 'NONE', *, *, #320, .T. ) ;
#190 = CC_DESIGN_DATE_AND_TIME_ASSIGNMENT ( #305, #63, ( #27 ) ) ;
#191 = APPROVAL_PERSON_ORGANIZATION ( #104, #214, #315 ) ;
#192 = VECTOR ( 'NONE', #117, 1000.000000000000000 ) ;
#193 = ORIENTED_EDGE ( 'NONE', *, *, #292, .F. ) ;
#194 = DIRECTION ( 'NONE',  ( -0.0000000000000000000, -0.0000000000000000000, 1.000000000000000000 ) ) ;
#195 = LOCAL_TIME ( 10, 18, 47.00000000000000000, #307 ) ;
#196 = CARTESIAN_POINT ( 'NONE',  ( 0.7352129622484702143, 0.9414593414220470136, 2.110618796649168960 ) ) ;
#197 = VERTEX_POINT ( 'NONE', #83 ) ;
#198 = CC_DESIGN_PERSON_AND_ORGANIZATION_ASSIGNMENT ( #38, #141, ( #42 ) ) ;
#199 = CALENDAR_DATE ( 2019, 24, 10 ) ;
#200 = DIRECTION ( 'NONE',  ( -1.000000000000000000, 0.0000000000000000000, 0.0000000000000000000 ) ) ;
#201 = ADVANCED_FACE ( 'NONE', ( #183 ), #173, .T. ) ;
#202 = CARTESIAN_POINT ( 'NONE',  ( 0.7352129622484702143, 0.9414593414220470136, 1.941381953873316579 ) ) ;
#203 = APPLICATION_PROTOCOL_DEFINITION ( 'international standard', 'config_control_design', 1994, #281 ) ;
#204 = ADVANCED_FACE ( 'NONE', ( #26 ), #130, .T. ) ;
#205 = APPROVAL_STATUS ( 'not_yet_approved' ) ;
#206 = CYLINDRICAL_SURFACE ( 'NONE', #208, 1.000000000000000000 ) ;
#207 = APPROVAL_STATUS ( 'not_yet_approved' ) ;
#208 = AXIS2_PLACEMENT_3D ( 'NONE', #196, #158, #144 ) ;
#209 = DIRECTION ( 'NONE',  ( 1.000000000000000000, 0.0000000000000000000, 0.0000000000000000000 ) ) ;
#210 = COORDINATED_UNIVERSAL_TIME_OFFSET ( 5, 0, .BEHIND. ) ;
#211 = CC_DESIGN_SECURITY_CLASSIFICATION ( #27, ( #103 ) ) ;
#212 = FACE_OUTER_BOUND ( 'NONE', #49, .T. ) ;
#213 = VERTEX_POINT ( 'NONE', #109 ) ;
#214 = APPROVAL ( #233, 'UNSPECIFIED' ) ;
#215 = SPHERICAL_SURFACE ( 'NONE', #156, 2.750999999999999890 ) ;
#216 = ORIENTED_EDGE ( 'NONE', *, *, #31, .F. ) ;
#217 = ORIENTED_EDGE ( 'NONE', *, *, #24, .T. ) ;
#218 = EDGE_CURVE ( 'NONE', #128, #213, #266, .T. ) ;
#219 = CARTESIAN_POINT ( 'NONE',  ( 1.685212962248470836, 0.9414593414220471246, 1.941381953873316579 ) ) ;
#220 = CALENDAR_DATE ( 2019, 24, 10 ) ;
#221 = PRODUCT_DEFINITION_SHAPE ( 'NONE', 'NONE',  #127 ) ;
#222 = DIRECTION ( 'NONE',  ( 0.0000000000000000000, 0.0000000000000000000, -1.000000000000000000 ) ) ;
#223 = ORIENTED_EDGE ( 'NONE', *, *, #253, .F. ) ;
#224 = DIRECTION ( 'NONE',  ( 0.0000000000000000000, 0.0000000000000000000, -1.000000000000000000 ) ) ;
#225 = AXIS2_PLACEMENT_3D ( 'NONE', #184, #146, #92 ) ;
#226 = CIRCLE ( 'NONE', #65, 0.9500000000000002887 ) ;
#227 = DIRECTION ( 'NONE',  ( -0.7071067811865467956, 0.0000000000000000000, -0.7071067811865483499 ) ) ;
#228 = CARTESIAN_POINT ( 'NONE',  ( 1.735212962248470214, 0.9414593414220471246, 1.891381953873316757 ) ) ;
#229 = DIRECTION ( 'NONE',  ( 1.000000000000000000, 0.0000000000000000000, 0.0000000000000000000 ) ) ;
#230 = CIRCLE ( 'NONE', #261, 1.000000000000000000 ) ;
#231 = DATE_TIME_ROLE ( 'creation_date' ) ;
#232 = ADVANCED_FACE ( 'NONE', ( #238 ), #77, .T. ) ;
#233 = APPROVAL_STATUS ( 'not_yet_approved' ) ;
#234 = EDGE_LOOP ( 'NONE', ( #291, #263, #97, #217 ) ) ;
#235 = LINE ( 'NONE', #116, #59 ) ;
#236 = CC_DESIGN_PERSON_AND_ORGANIZATION_ASSIGNMENT ( #90, #288, ( #127 ) ) ;
#237 = EDGE_CURVE ( 'NONE', #163, #125, #293, .T. ) ;
#238 = FACE_OUTER_BOUND ( 'NONE', #96, .T. ) ;
#239 = ORIENTED_EDGE ( 'NONE', *, *, #265, .F. ) ;
#240 = AXIS2_PLACEMENT_3D ( 'NONE', #60, #286, #258 ) ;
#241 = EDGE_LOOP ( 'NONE', ( #223, #86, #23, #159 ) ) ;
#242 = CARTESIAN_POINT ( 'NONE',  ( 0.7352129622484702143, 0.9414593414220470136, 1.160618796649169004 ) ) ;
#243 = CARTESIAN_POINT ( 'NONE',  ( -0.2647870377515298412, 0.9414593414220471246, 1.160618796649169004 ) ) ;
#244 = EDGE_CURVE ( 'NONE', #2, #153, #259, .T. ) ;
#245 = DIRECTION ( 'NONE',  ( -0.0000000000000000000, -0.0000000000000000000, 1.000000000000000000 ) ) ;
#246 = CC_DESIGN_PERSON_AND_ORGANIZATION_ASSIGNMENT ( #142, #256, ( #103 ) ) ;
#247 = ORIENTED_EDGE ( 'NONE', *, *, #111, .F. ) ;
#248 = DIRECTION ( 'NONE',  ( 0.0000000000000000000, 0.0000000000000000000, -1.000000000000000000 ) ) ;
#249 = FACE_OUTER_BOUND ( 'NONE', #137, .T. ) ;
#250 = AXIS2_PLACEMENT_3D ( 'NONE', #47, #269, #297 ) ;
#251 = DIRECTION ( 'NONE',  ( 1.000000000000000000, 0.0000000000000000000, 0.0000000000000000000 ) ) ;
#252 = ADVANCED_FACE ( 'NONE', ( #274 ), #66, .T. ) ;
#253 = EDGE_CURVE ( 'NONE', #36, #98, #105, .T. ) ;
#254 = ORIENTED_EDGE ( 'NONE', *, *, #56, .T. ) ;
#255 = ORIENTED_EDGE ( 'NONE', *, *, #244, .F. ) ;
#256 = PERSON_AND_ORGANIZATION_ROLE ( 'creator' ) ;
#257 = PERSON_AND_ORGANIZATION ( #25, #150 ) ;
#258 = DIRECTION ( 'NONE',  ( 1.000000000000000000, 0.0000000000000000000, 0.0000000000000000000 ) ) ;
#259 = LINE ( 'NONE', #228, #143 ) ;
#260 = CARTESIAN_POINT ( 'NONE',  ( 0.7352129622484702143, 0.9414593414220470136, 1.160618796649169004 ) ) ;
#261 = AXIS2_PLACEMENT_3D ( 'NONE', #260, #313, #229 ) ;
#262 = ADVANCED_FACE ( 'NONE', ( #170 ), #206, .T. ) ;
#263 = ORIENTED_EDGE ( 'NONE', *, *, #301, .T. ) ;
#264 = DATE_AND_TIME ( #199, #316 ) ;
#265 = EDGE_CURVE ( 'NONE', #163, #153, #235, .T. ) ;
#266 = LINE ( 'NONE', #55, #300 ) ;
#267 = ORIENTED_EDGE ( 'NONE', *, *, #24, .F. ) ;
#268 = CARTESIAN_POINT ( 'NONE',  ( -0.2147870377515301299, 0.9414593414220471246, 1.110618796649168738 ) ) ;
#269 = DIRECTION ( 'NONE',  ( -0.0000000000000000000, -0.0000000000000000000, 1.000000000000000000 ) ) ;
#270 = ORIENTED_EDGE ( 'NONE', *, *, #265, .T. ) ;
#271 = EDGE_CURVE ( 'NONE', #98, #163, #121, .T. ) ;
#272 = UNCERTAINTY_MEASURE_WITH_UNIT (LENGTH_MEASURE( 1.000000000000000082E-05 ), #41, 'distance_accuracy_value', 'NONE');
#273 = DIRECTION ( 'NONE',  ( 1.000000000000000000, 0.0000000000000000000, 0.0000000000000000000 ) ) ;
#274 = FACE_OUTER_BOUND ( 'NONE', #241, .T. ) ;
#275 = DIRECTION ( 'NONE',  ( -0.7071067811865444641, 8.659560562354895880E-17, 0.7071067811865505703 ) ) ;
#276 = AXIS2_PLACEMENT_3D ( 'NONE', #87, #14, #209 ) ;
#277 = CARTESIAN_POINT ( 'NONE',  ( 0.7352129622484702143, 0.9414593414220470136, -0.6403812033508311519 ) ) ;
#278 = CARTESIAN_POINT ( 'NONE',  ( 1.735212962248470214, 0.9414593414220470136, 1.160618796649169004 ) ) ;
#279 = DIRECTION ( 'NONE',  ( -0.0000000000000000000, -0.0000000000000000000, 1.000000000000000000 ) ) ;
#280 = CARTESIAN_POINT ( 'NONE',  ( 0.7352129622484702143, 0.9414593414220470136, -0.6403812033508311519 ) ) ;
#281 = APPLICATION_CONTEXT ( 'configuration controlled 3d designs of mechanical parts and assemblies' ) ;
#282 = PERSON_AND_ORGANIZATION ( #25, #150 ) ;
#283 = ADVANCED_FACE ( 'NONE', ( #212 ), #73, .T. ) ;
#284 = DATE_AND_TIME ( #220, #195 ) ;
#285 = AXIS2_PLACEMENT_3D ( 'NONE', #242, #194, #1 ) ;
#286 = DIRECTION ( 'NONE',  ( -0.0000000000000000000, -0.0000000000000000000, 1.000000000000000000 ) ) ;
#287 = ORIENTED_EDGE ( 'NONE', *, *, #147, .T. ) ;
#288 = PERSON_AND_ORGANIZATION_ROLE ( 'creator' ) ;
#289 = DIRECTION ( 'NONE',  ( 1.000000000000000000, 0.0000000000000000000, 0.0000000000000000000 ) ) ;
#290 = FACE_OUTER_BOUND ( 'NONE', #148, .T. ) ;
#291 = ORIENTED_EDGE ( 'NONE', *, *, #168, .T. ) ;
#292 = EDGE_CURVE ( 'NONE', #125, #213, #114, .T. ) ;
#293 = CIRCLE ( 'NONE', #136, 1.000000000000000000 ) ;
#294 =( GEOMETRIC_REPRESENTATION_CONTEXT ( 3 ) GLOBAL_UNCERTAINTY_ASSIGNED_CONTEXT ( ( #272 ) ) GLOBAL_UNIT_ASSIGNED_CONTEXT ( ( #41, #67, #122 ) ) REPRESENTATION_CONTEXT ( 'NONE', 'WORKASPACE' ) );
#295 = PLANE ( 'NONE',  #69 ) ;
#296 = ORIENTED_EDGE ( 'NONE', *, *, #147, .F. ) ;
#297 = DIRECTION ( 'NONE',  ( 1.000000000000000000, 0.0000000000000000000, 0.0000000000000000000 ) ) ;
#298 = CIRCLE ( 'NONE', #304, 0.9500000000000005107 ) ;
#299 = DIRECTION ( 'NONE',  ( -0.0000000000000000000, -0.0000000000000000000, 1.000000000000000000 ) ) ;
#300 = VECTOR ( 'NONE', #227, 999.9999999999998863 ) ;
#301 = EDGE_CURVE ( 'NONE', #81, #197, #99, .T. ) ;
#302 = CARTESIAN_POINT ( 'NONE',  ( 0.7352129622484702143, 0.9414593414220470136, 1.941381953873316579 ) ) ;
#303 = DIRECTION ( 'NONE',  ( -1.000000000000000000, 0.0000000000000000000, 0.0000000000000000000 ) ) ;
#304 = AXIS2_PLACEMENT_3D ( 'NONE', #302, #279, #112 ) ;
#305 = DATE_AND_TIME ( #95, #88 ) ;
#306 = CARTESIAN_POINT ( 'NONE',  ( -0.2147870377515302409, 0.9414593414220470136, 1.941381953873316579 ) ) ;
#307 = COORDINATED_UNIVERSAL_TIME_OFFSET ( 5, 0, .BEHIND. ) ;
#308 = EDGE_CURVE ( 'NONE', #125, #163, #230, .T. ) ;
#309 = DIRECTION ( 'NONE',  ( 1.000000000000000000, 0.0000000000000000000, 0.0000000000000000000 ) ) ;
#310 = SECURITY_CLASSIFICATION_LEVEL ( 'unclassified' ) ;
#311 = ORIENTED_EDGE ( 'NONE', *, *, #56, .F. ) ;
#312 = MANIFOLD_SOLID_BREP ( 'TTN162780-1-solid1', #74 ) ;
#313 = DIRECTION ( 'NONE',  ( -0.0000000000000000000, -0.0000000000000000000, 1.000000000000000000 ) ) ;
#314 = CIRCLE ( 'NONE', #318, 2.750999999999999890 ) ;
#315 = APPROVAL_ROLE ( '' ) ;
#316 = LOCAL_TIME ( 10, 18, 47.00000000000000000, #210 ) ;
#317 = AXIS2_PLACEMENT_3D ( 'NONE', #110, #157, #174 ) ;
#318 = AXIS2_PLACEMENT_3D ( 'NONE', #280, #30, #5 ) ;
#319 = CALENDAR_DATE ( 2019, 24, 10 ) ;
#320 = EDGE_CURVE ( 'NONE', #213, #153, #176, .T. ) ;
#321 = CARTESIAN_POINT ( 'NONE',  ( 1.685212962248470614, 0.9414593414220470136, 1.110618796649168738 ) ) ;
ENDSEC;
END-ISO-10303-21;
