ISO-10303-21;
HEADER;
FILE_DESCRIPTION (( 'STEP AP203' ),
    '1' );
FILE_NAME ('Web Model 68369_48907.step',
    '2017-03-01T19:00:10',
    ( '' ),
    ( '' ),
    'SwSTEP 2.0',
    'SolidWorks 2016',
    '' );
FILE_SCHEMA (( 'CONFIG_CONTROL_DESIGN' ));
ENDSEC;

DATA;
#1 = VECTOR ( 'NONE', #134, 1000.000000000000000 ) ;
#2 = ADVANCED_FACE ( 'NONE', ( #233 ), #122, .F. ) ;
#3 = ORIENTED_EDGE ( 'NONE', *, *, #132, .T. ) ;
#4 = DATE_AND_TIME ( #133, #232 ) ;
#5 = ADVANCED_FACE ( 'NONE', ( #20 ), #30, .F. ) ;
#6 = FACE_OUTER_BOUND ( 'NONE', #119, .T. ) ;
#7 = PERSON_AND_ORGANIZATION_ROLE ( 'creator' ) ;
#8 = VECTOR ( 'NONE', #169, 1000.000000000000000 ) ;
#9 = VECTOR ( 'NONE', #48, 1000.000000000000000 ) ;
#10 = APPLICATION_CONTEXT ( 'configuration controlled 3d designs of mechanical parts and assemblies' ) ;
#11 = PERSON_AND_ORGANIZATION ( #88, #59 ) ;
#12 = PRODUCT_DEFINITION_FORMATION_WITH_SPECIFIED_SOURCE ( 'ANY', '', #52, .NOT_KNOWN. ) ;
#13 = AXIS2_PLACEMENT_3D ( 'NONE', #127, #61, #62 ) ;
#14 = APPROVAL_STATUS ( 'not_yet_approved' ) ;
#15 = VERTEX_POINT ( 'NONE', #24 ) ;
#16 = PERSON_AND_ORGANIZATION_ROLE ( 'creator' ) ;
#17 = APPROVAL ( #26, 'UNSPECIFIED' ) ;
#18 = EDGE_LOOP ( 'NONE', ( #188, #217, #197, #105 ) ) ;
#19 = PRODUCT_RELATED_PRODUCT_CATEGORY ( 'detail', '', ( #52 ) ) ;
#20 = FACE_OUTER_BOUND ( 'NONE', #148, .T. ) ;
#21 = PERSON_AND_ORGANIZATION_ROLE ( 'classification_officer' ) ;
#22 = AXIS2_PLACEMENT_3D ( 'NONE', #101, #93, #110 ) ;
#23 = SHAPE_DEFINITION_REPRESENTATION ( #64, #141 ) ;
#24 = CARTESIAN_POINT ( 'NONE',  ( 12.49999999999999500, 12.50000000000000000, 3.000000000000000000 ) ) ;
#25 = ADVANCED_FACE ( 'NONE', ( #76 ), #200, .F. ) ;
#26 = APPROVAL_STATUS ( 'not_yet_approved' ) ;
#27 = ADVANCED_FACE ( 'NONE', ( #65 ), #95, .T. ) ;
#28 =( GEOMETRIC_REPRESENTATION_CONTEXT ( 3 ) GLOBAL_UNCERTAINTY_ASSIGNED_CONTEXT ( ( #215 ) ) GLOBAL_UNIT_ASSIGNED_CONTEXT ( ( #108, #143, #214 ) ) REPRESENTATION_CONTEXT ( 'NONE', 'WORKASPACE' ) );
#29 = COORDINATED_UNIVERSAL_TIME_OFFSET ( 5, 0, .BEHIND. ) ;
#30 = PLANE ( 'NONE',  #98 ) ;
#31 = CARTESIAN_POINT ( 'NONE',  ( 12.50000000000000500, -12.50000000000000000, 3.000000000000000000 ) ) ;
#32 = ORIENTED_EDGE ( 'NONE', *, *, #85, .F. ) ;
#33 = LINE ( 'NONE', #216, #9 ) ;
#34 = DIRECTION ( 'NONE',  ( -1.000000000000000000, -1.387778780781445400E-016, 0.0000000000000000000 ) ) ;
#35 = VERTEX_POINT ( 'NONE', #75 ) ;
#36 = ORIENTED_EDGE ( 'NONE', *, *, #97, .T. ) ;
#37 = LINE ( 'NONE', #124, #199 ) ;
#38 = MANIFOLD_SOLID_BREP ( 'Extrude1', #224 ) ;
#39 = ORIENTED_EDGE ( 'NONE', *, *, #191, .F. ) ;
#40 = VERTEX_POINT ( 'NONE', #176 ) ;
#41 = VECTOR ( 'NONE', #179, 1000.000000000000000 ) ;
#42 = APPLICATION_PROTOCOL_DEFINITION ( 'international standard', 'config_control_design', 1994, #10 ) ;
#43 = COORDINATED_UNIVERSAL_TIME_OFFSET ( 5, 0, .BEHIND. ) ;
#44 = CARTESIAN_POINT ( 'NONE',  ( -12.49999999999999800, 12.49999999999999600, 0.0000000000000000000 ) ) ;
#45 = APPROVAL_PERSON_ORGANIZATION ( #63, #145, #229 ) ;
#46 = DIRECTION ( 'NONE',  ( 0.0000000000000000000, 0.0000000000000000000, -1.000000000000000000 ) ) ;
#47 = ORIENTED_EDGE ( 'NONE', *, *, #128, .T. ) ;
#48 = DIRECTION ( 'NONE',  ( -0.0000000000000000000, -0.0000000000000000000, -1.000000000000000000 ) ) ;
#49 = VECTOR ( 'NONE', #158, 1000.000000000000000 ) ;
#50 = DATE_AND_TIME ( #221, #213 ) ;
#51 = CARTESIAN_POINT ( 'NONE',  ( 12.49999999999999500, 12.50000000000000000, 3.000000000000000000 ) ) ;
#52 = PRODUCT ( 'Web Model 68369_48907', 'Web Model 68369_48907', '', ( #136 ) ) ;
#53 = DIRECTION ( 'NONE',  ( -0.0000000000000000000, -0.0000000000000000000, -1.000000000000000000 ) ) ;
#54 = DIRECTION ( 'NONE',  ( 1.387778780781445700E-016, -1.000000000000000000, 0.0000000000000000000 ) ) ;
#55 = CC_DESIGN_DATE_AND_TIME_ASSIGNMENT ( #4, #212, ( #70 ) ) ;
#56 = ADVANCED_FACE ( 'NONE', ( #6 ), #73, .F. ) ;
#57 = APPROVAL_ROLE ( '' ) ;
#58 = ORIENTED_EDGE ( 'NONE', *, *, #115, .F. ) ;
#59 = ORGANIZATION ( 'UNSPECIFIED', 'UNSPECIFIED', '' ) ;
#60 = CALENDAR_DATE ( 2017, 1, 3 ) ;
#61 = DIRECTION ( 'NONE',  ( 1.387778780781445900E-016, -1.000000000000000000, 0.0000000000000000000 ) ) ;
#62 = DIRECTION ( 'NONE',  ( 1.000000000000000000, 1.387778780781445900E-016, 0.0000000000000000000 ) ) ;
#63 = PERSON_AND_ORGANIZATION ( #88, #59 ) ;
#64 = PRODUCT_DEFINITION_SHAPE ( 'NONE', 'NONE',  #125 ) ;
#65 = FACE_OUTER_BOUND ( 'NONE', #187, .T. ) ;
#66 = EDGE_LOOP ( 'NONE', ( #168, #71, #74, #236 ) ) ;
#67 = CARTESIAN_POINT ( 'NONE',  ( -12.49999999999999500, -12.50000000000000400, 3.000000000000000000 ) ) ;
#68 = LINE ( 'NONE', #226, #81 ) ;
#69 = CARTESIAN_POINT ( 'NONE',  ( -12.49999999999999500, -12.50000000000000400, 0.0000000000000000000 ) ) ;
#70 = SECURITY_CLASSIFICATION ( '', '', #161 ) ;
#71 = ORIENTED_EDGE ( 'NONE', *, *, #100, .F. ) ;
#72 = LINE ( 'NONE', #139, #49 ) ;
#73 = PLANE ( 'NONE',  #118 ) ;
#74 = ORIENTED_EDGE ( 'NONE', *, *, #132, .F. ) ;
#75 = CARTESIAN_POINT ( 'NONE',  ( -12.49999999999999500, -12.50000000000000400, 3.000000000000000000 ) ) ;
#76 = FACE_OUTER_BOUND ( 'NONE', #66, .T. ) ;
#77 = ORIENTED_EDGE ( 'NONE', *, *, #111, .F. ) ;
#78 = VECTOR ( 'NONE', #142, 1000.000000000000000 ) ;
#79 = CC_DESIGN_APPROVAL ( #17, ( #12 ) ) ;
#80 = CARTESIAN_POINT ( 'NONE',  ( 12.49999999999999500, 12.50000000000000000, 3.000000000000000000 ) ) ;
#81 = VECTOR ( 'NONE', #54, 1000.000000000000000 ) ;
#82 = AXIS2_PLACEMENT_3D ( 'NONE', #237, #102, #211 ) ;
#83 = APPROVAL_DATE_TIME ( #166, #145 ) ;
#84 = COORDINATED_UNIVERSAL_TIME_OFFSET ( 5, 0, .BEHIND. ) ;
#85 = EDGE_CURVE ( 'NONE', #206, #40, #37, .T. ) ;
#86 = COORDINATED_UNIVERSAL_TIME_OFFSET ( 5, 0, .BEHIND. ) ;
#87 = EDGE_CURVE ( 'NONE', #172, #137, #33, .T. ) ;
#88 = PERSON ( 'UNSPECIFIED', 'UNSPECIFIED', 'UNSPECIFIED', ('UNSPECIFIED'), ('UNSPECIFIED'), ('UNSPECIFIED') ) ;
#89 = FACE_OUTER_BOUND ( 'NONE', #219, .T. ) ;
#90 = VERTEX_POINT ( 'NONE', #69 ) ;
#91 = CARTESIAN_POINT ( 'NONE',  ( 12.49999999999999500, 12.50000000000000000, 0.0000000000000000000 ) ) ;
#92 = ADVANCED_FACE ( 'NONE', ( #89 ), #153, .F. ) ;
#93 = DIRECTION ( 'NONE',  ( 1.000000000000000000, 1.387778780781445400E-016, -0.0000000000000000000 ) ) ;
#94 = APPROVAL_STATUS ( 'not_yet_approved' ) ;
#95 = PLANE ( 'NONE',  #165 ) ;
#96 = CARTESIAN_POINT ( 'NONE',  ( -12.49999999999999800, 12.49999999999999600, 3.000000000000000000 ) ) ;
#97 = EDGE_CURVE ( 'NONE', #172, #15, #72, .T. ) ;
#98 = AXIS2_PLACEMENT_3D ( 'NONE', #140, #46, #202 ) ;
#99 = CARTESIAN_POINT ( 'NONE',  ( -12.49999999999999500, -12.50000000000000400, 0.0000000000000000000 ) ) ;
#100 = EDGE_CURVE ( 'NONE', #35, #90, #228, .T. ) ;
#101 = CARTESIAN_POINT ( 'NONE',  ( -12.49999999999999800, 12.49999999999999600, 3.000000000000000000 ) ) ;
#102 = DIRECTION ( 'NONE',  ( 0.0000000000000000000, 0.0000000000000000000, 1.000000000000000000 ) ) ;
#103 = DIRECTION ( 'NONE',  ( 0.0000000000000000000, 0.0000000000000000000, -1.000000000000000000 ) ) ;
#104 = APPROVAL_PERSON_ORGANIZATION ( #11, #129, #57 ) ;
#105 = ORIENTED_EDGE ( 'NONE', *, *, #100, .T. ) ;
#106 = ORIENTED_EDGE ( 'NONE', *, *, #97, .F. ) ;
#107 = ORIENTED_EDGE ( 'NONE', *, *, #220, .F. ) ;
#108 =( LENGTH_UNIT ( ) NAMED_UNIT ( * ) SI_UNIT ( .MILLI., .METRE. ) );
#109 = COORDINATED_UNIVERSAL_TIME_OFFSET ( 5, 0, .BEHIND. ) ;
#110 = DIRECTION ( 'NONE',  ( -1.387778780781445400E-016, 1.000000000000000000, 0.0000000000000000000 ) ) ;
#111 = EDGE_CURVE ( 'NONE', #15, #206, #190, .T. ) ;
#112 = DESIGN_CONTEXT ( 'detailed design', #183, 'design' ) ;
#113 = LINE ( 'NONE', #44, #144 ) ;
#114 = VECTOR ( 'NONE', #146, 1000.000000000000000 ) ;
#115 = EDGE_CURVE ( 'NONE', #155, #40, #159, .T. ) ;
#116 = PERSON_AND_ORGANIZATION_ROLE ( 'design_supplier' ) ;
#117 = CC_DESIGN_APPROVAL ( #129, ( #70 ) ) ;
#118 = AXIS2_PLACEMENT_3D ( 'NONE', #51, #156, #207 ) ;
#119 = EDGE_LOOP ( 'NONE', ( #227, #77, #106, #198 ) ) ;
#120 = DIRECTION ( 'NONE',  ( -1.387778780781445400E-016, 1.000000000000000000, 0.0000000000000000000 ) ) ;
#121 = PERSON_AND_ORGANIZATION ( #88, #59 ) ;
#122 = PLANE ( 'NONE',  #209 ) ;
#123 = APPROVAL_PERSON_ORGANIZATION ( #184, #17, #222 ) ;
#124 = CARTESIAN_POINT ( 'NONE',  ( 12.49999999999999500, 12.50000000000000000, 0.0000000000000000000 ) ) ;
#125 = PRODUCT_DEFINITION ( 'UNKNOWN', '', #12, #112 ) ;
#126 = PERSON_AND_ORGANIZATION ( #88, #59 ) ;
#127 = CARTESIAN_POINT ( 'NONE',  ( 12.49999999999999500, 12.50000000000000000, 3.000000000000000000 ) ) ;
#128 = EDGE_CURVE ( 'NONE', #15, #155, #147, .T. ) ;
#129 = APPROVAL ( #14, 'UNSPECIFIED' ) ;
#130 = LINE ( 'NONE', #91, #1 ) ;
#131 = LOCAL_TIME ( 14, 0, 10.00000000000000000, #84 ) ;
#132 = EDGE_CURVE ( 'NONE', #155, #35, #68, .T. ) ;
#133 = CALENDAR_DATE ( 2017, 1, 3 ) ;
#134 = DIRECTION ( 'NONE',  ( -4.163336342344337000E-016, 1.000000000000000000, -0.0000000000000000000 ) ) ;
#135 = CARTESIAN_POINT ( 'NONE',  ( 12.50000000000000500, -12.50000000000000000, 0.0000000000000000000 ) ) ;
#136 = MECHANICAL_CONTEXT ( 'NONE', #10, 'mechanical' ) ;
#137 = VERTEX_POINT ( 'NONE', #135 ) ;
#138 = PERSON_AND_ORGANIZATION_ROLE ( 'design_owner' ) ;
#139 = CARTESIAN_POINT ( 'NONE',  ( 12.49999999999999500, 12.50000000000000000, 3.000000000000000000 ) ) ;
#140 = CARTESIAN_POINT ( 'NONE',  ( -12.49999999999999500, -12.50000000000000400, 3.000000000000000000 ) ) ;
#141 = ADVANCED_BREP_SHAPE_REPRESENTATION ( 'Web Model 68369_48907', ( #38, #82 ), #28 ) ;
#142 = DIRECTION ( 'NONE',  ( -1.000000000000000000, -1.387778780781445900E-016, 0.0000000000000000000 ) ) ;
#143 =( NAMED_UNIT ( * ) PLANE_ANGLE_UNIT ( ) SI_UNIT ( $, .RADIAN. ) );
#144 = VECTOR ( 'NONE', #225, 1000.000000000000000 ) ;
#145 = APPROVAL ( #94, 'UNSPECIFIED' ) ;
#146 = DIRECTION ( 'NONE',  ( -0.0000000000000000000, -0.0000000000000000000, -1.000000000000000000 ) ) ;
#147 = LINE ( 'NONE', #151, #78 ) ;
#148 = EDGE_LOOP ( 'NONE', ( #3, #193, #36, #47 ) ) ;
#149 = APPROVAL_DATE_TIME ( #167, #129 ) ;
#150 = ORIENTED_EDGE ( 'NONE', *, *, #128, .F. ) ;
#151 = CARTESIAN_POINT ( 'NONE',  ( 12.49999999999999500, 12.50000000000000000, 3.000000000000000000 ) ) ;
#152 = CC_DESIGN_PERSON_AND_ORGANIZATION_ASSIGNMENT ( #175, #138, ( #52 ) ) ;
#153 = PLANE ( 'NONE',  #13 ) ;
#154 = CC_DESIGN_PERSON_AND_ORGANIZATION_ASSIGNMENT ( #121, #21, ( #70 ) ) ;
#155 = VERTEX_POINT ( 'NONE', #96 ) ;
#156 = DIRECTION ( 'NONE',  ( -1.000000000000000000, -4.163336342344336500E-016, 0.0000000000000000000 ) ) ;
#157 = LOCAL_TIME ( 14, 0, 10.00000000000000000, #86 ) ;
#158 = DIRECTION ( 'NONE',  ( -4.163336342344337000E-016, 1.000000000000000000, -0.0000000000000000000 ) ) ;
#159 = LINE ( 'NONE', #182, #8 ) ;
#160 = DATE_AND_TIME ( #177, #192 ) ;
#161 = SECURITY_CLASSIFICATION_LEVEL ( 'unclassified' ) ;
#162 = CARTESIAN_POINT ( 'NONE',  ( 12.50000000000000500, -12.50000000000000000, 3.000000000000000000 ) ) ;
#163 = ORIENTED_EDGE ( 'NONE', *, *, #85, .T. ) ;
#164 = CC_DESIGN_PERSON_AND_ORGANIZATION_ASSIGNMENT ( #235, #7, ( #12 ) ) ;
#165 = AXIS2_PLACEMENT_3D ( 'NONE', #99, #103, #205 ) ;
#166 = DATE_AND_TIME ( #173, #131 ) ;
#167 = DATE_AND_TIME ( #60, #157 ) ;
#168 = ORIENTED_EDGE ( 'NONE', *, *, #171, .T. ) ;
#169 = DIRECTION ( 'NONE',  ( -0.0000000000000000000, -0.0000000000000000000, -1.000000000000000000 ) ) ;
#170 = LINE ( 'NONE', #180, #41 ) ;
#171 = EDGE_CURVE ( 'NONE', #40, #90, #113, .T. ) ;
#172 = VERTEX_POINT ( 'NONE', #31 ) ;
#173 = CALENDAR_DATE ( 2017, 1, 3 ) ;
#174 = CC_DESIGN_PERSON_AND_ORGANIZATION_ASSIGNMENT ( #126, #116, ( #12 ) ) ;
#175 = PERSON_AND_ORGANIZATION ( #88, #59 ) ;
#176 = CARTESIAN_POINT ( 'NONE',  ( -12.49999999999999800, 12.49999999999999600, 0.0000000000000000000 ) ) ;
#177 = CALENDAR_DATE ( 2017, 1, 3 ) ;
#178 = CARTESIAN_POINT ( 'NONE',  ( 12.50000000000000500, -12.50000000000000000, 3.000000000000000000 ) ) ;
#179 = DIRECTION ( 'NONE',  ( 1.000000000000000000, 1.387778780781445700E-016, -0.0000000000000000000 ) ) ;
#180 = CARTESIAN_POINT ( 'NONE',  ( 12.50000000000000500, -12.50000000000000000, 0.0000000000000000000 ) ) ;
#181 = ORIENTED_EDGE ( 'NONE', *, *, #111, .T. ) ;
#182 = CARTESIAN_POINT ( 'NONE',  ( -12.49999999999999800, 12.49999999999999600, 3.000000000000000000 ) ) ;
#183 = APPLICATION_CONTEXT ( 'configuration controlled 3d designs of mechanical parts and assemblies' ) ;
#184 = PERSON_AND_ORGANIZATION ( #88, #59 ) ;
#185 = CC_DESIGN_PERSON_AND_ORGANIZATION_ASSIGNMENT ( #186, #16, ( #125 ) ) ;
#186 = PERSON_AND_ORGANIZATION ( #88, #59 ) ;
#187 = EDGE_LOOP ( 'NONE', ( #204, #32, #107, #39 ) ) ;
#188 = ORIENTED_EDGE ( 'NONE', *, *, #191, .T. ) ;
#189 = CARTESIAN_POINT ( 'NONE',  ( 12.49999999999999500, 12.50000000000000000, 0.0000000000000000000 ) ) ;
#190 = LINE ( 'NONE', #80, #114 ) ;
#191 = EDGE_CURVE ( 'NONE', #90, #137, #170, .T. ) ;
#192 = LOCAL_TIME ( 14, 0, 10.00000000000000000, #29 ) ;
#193 = ORIENTED_EDGE ( 'NONE', *, *, #223, .T. ) ;
#194 = DIRECTION ( 'NONE',  ( -1.000000000000000000, -1.387778780781445900E-016, 0.0000000000000000000 ) ) ;
#195 = DATE_TIME_ROLE ( 'creation_date' ) ;
#196 = APPROVAL_DATE_TIME ( #160, #17 ) ;
#197 = ORIENTED_EDGE ( 'NONE', *, *, #223, .F. ) ;
#198 = ORIENTED_EDGE ( 'NONE', *, *, #87, .T. ) ;
#199 = VECTOR ( 'NONE', #194, 1000.000000000000000 ) ;
#200 = PLANE ( 'NONE',  #22 ) ;
#201 = VECTOR ( 'NONE', #53, 1000.000000000000000 ) ;
#202 = DIRECTION ( 'NONE',  ( -1.000000000000000000, 0.0000000000000000000, -0.0000000000000000000 ) ) ;
#203 = CC_DESIGN_APPROVAL ( #145, ( #125 ) ) ;
#204 = ORIENTED_EDGE ( 'NONE', *, *, #171, .F. ) ;
#205 = DIRECTION ( 'NONE',  ( -1.000000000000000000, 0.0000000000000000000, -0.0000000000000000000 ) ) ;
#206 = VERTEX_POINT ( 'NONE', #189 ) ;
#207 = DIRECTION ( 'NONE',  ( 4.163336342344336500E-016, -1.000000000000000000, 0.0000000000000000000 ) ) ;
#208 = CC_DESIGN_DATE_AND_TIME_ASSIGNMENT ( #50, #195, ( #125 ) ) ;
#209 = AXIS2_PLACEMENT_3D ( 'NONE', #178, #120, #34 ) ;
#210 = LINE ( 'NONE', #162, #231 ) ;
#211 = DIRECTION ( 'NONE',  ( 1.000000000000000000, 0.0000000000000000000, 0.0000000000000000000 ) ) ;
#212 = DATE_TIME_ROLE ( 'classification_date' ) ;
#213 = LOCAL_TIME ( 14, 0, 10.00000000000000000, #109 ) ;
#214 =( NAMED_UNIT ( * ) SI_UNIT ( $, .STERADIAN. ) SOLID_ANGLE_UNIT ( ) );
#215 = UNCERTAINTY_MEASURE_WITH_UNIT (LENGTH_MEASURE( 1.000000000000000100E-005 ), #108, 'distance_accuracy_value', 'NONE');
#216 = CARTESIAN_POINT ( 'NONE',  ( 12.50000000000000500, -12.50000000000000000, 3.000000000000000000 ) ) ;
#217 = ORIENTED_EDGE ( 'NONE', *, *, #87, .F. ) ;
#218 = DIRECTION ( 'NONE',  ( 1.000000000000000000, 1.387778780781445700E-016, -0.0000000000000000000 ) ) ;
#219 = EDGE_LOOP ( 'NONE', ( #163, #58, #150, #181 ) ) ;
#220 = EDGE_CURVE ( 'NONE', #137, #206, #130, .T. ) ;
#221 = CALENDAR_DATE ( 2017, 1, 3 ) ;
#222 = APPROVAL_ROLE ( '' ) ;
#223 = EDGE_CURVE ( 'NONE', #35, #172, #210, .T. ) ;
#224 = CLOSED_SHELL ( 'NONE', ( #25, #2, #56, #92, #5, #27 ) ) ;
#225 = DIRECTION ( 'NONE',  ( 1.387778780781445700E-016, -1.000000000000000000, 0.0000000000000000000 ) ) ;
#226 = CARTESIAN_POINT ( 'NONE',  ( -12.49999999999999800, 12.49999999999999600, 3.000000000000000000 ) ) ;
#227 = ORIENTED_EDGE ( 'NONE', *, *, #220, .T. ) ;
#228 = LINE ( 'NONE', #67, #201 ) ;
#229 = APPROVAL_ROLE ( '' ) ;
#230 = CC_DESIGN_SECURITY_CLASSIFICATION ( #70, ( #12 ) ) ;
#231 = VECTOR ( 'NONE', #218, 1000.000000000000000 ) ;
#232 = LOCAL_TIME ( 14, 0, 10.00000000000000000, #43 ) ;
#233 = FACE_OUTER_BOUND ( 'NONE', #18, .T. ) ;
#234 = APPLICATION_PROTOCOL_DEFINITION ( 'international standard', 'config_control_design', 1994, #183 ) ;
#235 = PERSON_AND_ORGANIZATION ( #88, #59 ) ;
#236 = ORIENTED_EDGE ( 'NONE', *, *, #115, .T. ) ;
#237 = CARTESIAN_POINT ( 'NONE',  ( 0.0000000000000000000, 0.0000000000000000000, 0.0000000000000000000 ) ) ;
ENDSEC;
END-ISO-10303-21;
